ISO-10303-21;
HEADER;
FILE_DESCRIPTION (( 'STEP AP203' ),
    '1' );
FILE_NAME ('DP26128_WI080.step',
    '2021-11-05T14:50:00',
    ( '' ),
    ( '' ),
    'SwSTEP 2.0',
    'SolidWorks 2021',
    '' );
FILE_SCHEMA (( 'CONFIG_CONTROL_DESIGN' ));
ENDSEC;

DATA;
#1 = PERSON_AND_ORGANIZATION ( #90, #259 ) ;
#2 = DATE_TIME_ROLE ( 'creation_date' ) ;
#3 =( LENGTH_UNIT ( ) NAMED_UNIT ( * ) SI_UNIT ( .MILLI., .METRE. ) );
#4 = APPROVAL_PERSON_ORGANIZATION ( #136, #70, #257 ) ;
#5 = APPROVAL_DATE_TIME ( #206, #159 ) ;
#6 = EDGE_LOOP ( 'NONE', ( #247, #52, #241, #95 ) ) ;
#7 = EDGE_LOOP ( 'NONE', ( #207, #211 ) ) ;
#8 = CC_DESIGN_PERSON_AND_ORGANIZATION_ASSIGNMENT ( #47, #258, ( #127 ) ) ;
#9 = ORIENTED_EDGE ( 'NONE', *, *, #233, .F. ) ;
#10 = CALENDAR_DATE ( 2021, 5, 11 ) ;
#11 = ORIENTED_EDGE ( 'NONE', *, *, #166, .F. ) ;
#12 = EDGE_LOOP ( 'NONE', ( #30, #230, #93, #38 ) ) ;
#13 = VERTEX_POINT ( 'NONE', #143 ) ;
#14 = ADVANCED_FACE ( 'NONE', ( #162 ), #119, .T. ) ;
#15 = DIRECTION ( 'NONE',  ( -2.449293598294704689E-17, -1.000000000000000000, 0.000000000000000000 ) ) ;
#16 = LINE ( 'NONE', #216, #48 ) ;
#17 = PRODUCT_RELATED_PRODUCT_CATEGORY ( 'detail', '', ( #248 ) ) ;
#18 = APPROVAL_PERSON_ORGANIZATION ( #69, #159, #156 ) ;
#19 = CARTESIAN_POINT ( 'NONE',  ( -2.166671187435640335E-31, -8.673617379884035472E-15, 0.000000000000000000 ) ) ;
#20 = ADVANCED_FACE ( 'NONE', ( #214 ), #158, .T. ) ;
#21 = CARTESIAN_POINT ( 'NONE',  ( 4.898587196589193981E-18, 0.1999999999999909905, 0.000000000000000000 ) ) ;
#22 = ADVANCED_FACE ( 'NONE', ( #97 ), #73, .T. ) ;
#23 = APPROVAL_STATUS ( 'not_yet_approved' ) ;
#24 = UNCERTAINTY_MEASURE_WITH_UNIT (LENGTH_MEASURE( 1.000000000000000082E-05 ), #3, 'distance_accuracy_value', 'NONE');
#25 = VERTEX_POINT ( 'NONE', #35 ) ;
#26 = VECTOR ( 'NONE', #270, 1000.000000000000114 ) ;
#27 = DATE_AND_TIME ( #66, #164 ) ;
#28 = VERTEX_POINT ( 'NONE', #268 ) ;
#29 = EDGE_CURVE ( 'NONE', #28, #13, #200, .T. ) ;
#30 = ORIENTED_EDGE ( 'NONE', *, *, #103, .F. ) ;
#31 = EDGE_CURVE ( 'NONE', #13, #25, #249, .T. ) ;
#32 = CARTESIAN_POINT ( 'NONE',  ( 57.80000000000000426, 4.999999999999988454, 0.000000000000000000 ) ) ;
#33 = AXIS2_PLACEMENT_3D ( 'NONE', #161, #244, #55 ) ;
#34 =( GEOMETRIC_REPRESENTATION_CONTEXT ( 3 ) GLOBAL_UNCERTAINTY_ASSIGNED_CONTEXT ( ( #24 ) ) GLOBAL_UNIT_ASSIGNED_CONTEXT ( ( #3, #49, #203 ) ) REPRESENTATION_CONTEXT ( 'NONE', 'WORKASPACE' ) );
#35 = CARTESIAN_POINT ( 'NONE',  ( -58.00000000000000000, 4.799999999999993605, 7.102951435054649637E-15 ) ) ;
#36 = DIRECTION ( 'NONE',  ( 1.000000000000000000, -3.001251688541188813E-17, 0.000000000000000000 ) ) ;
#37 = ADVANCED_FACE ( 'NONE', ( #194 ), #269, .T. ) ;
#38 = ORIENTED_EDGE ( 'NONE', *, *, #29, .F. ) ;
#39 = CLOSED_SHELL ( 'NONE', ( #251, #37, #20, #154, #22, #81, #14, #256 ) ) ;
#40 = MANIFOLD_SOLID_BREP ( 'Rivoluzione1', #39 ) ;
#41 = CARTESIAN_POINT ( 'NONE',  ( -2.166671187435640335E-31, -8.673617379884035472E-15, 0.000000000000000000 ) ) ;
#42 = CARTESIAN_POINT ( 'NONE',  ( 57.80000000000000426, -1.008930907969837511E-14, 7.090704967063175491E-15 ) ) ;
#43 = FACE_OUTER_BOUND ( 'NONE', #204, .T. ) ;
#44 = CC_DESIGN_APPROVAL ( #70, ( #127 ) ) ;
#45 = CARTESIAN_POINT ( 'NONE',  ( -1.040233385254263535E-31, -4.247075099443020492E-15, 0.000000000000000000 ) ) ;
#46 = EDGE_CURVE ( 'NONE', #59, #58, #187, .T. ) ;
#47 = PERSON_AND_ORGANIZATION ( #90, #259 ) ;
#48 = VECTOR ( 'NONE', #85, 1000.000000000000114 ) ;
#49 =( NAMED_UNIT ( * ) PLANE_ANGLE_UNIT ( ) SI_UNIT ( $, .RADIAN. ) );
#50 = DATE_AND_TIME ( #242, #57 ) ;
#51 = APPROVAL ( #163, 'NON SPECIFICATO' ) ;
#52 = ORIENTED_EDGE ( 'NONE', *, *, #29, .T. ) ;
#53 = CARTESIAN_POINT ( 'NONE',  ( -58.00000000000000000, 5.000000000000001776, 0.000000000000000000 ) ) ;
#54 = EDGE_CURVE ( 'NONE', #58, #25, #240, .T. ) ;
#55 = DIRECTION ( 'NONE',  ( -1.000000000000000000, 2.990902544787598715E-17, 0.000000000000000000 ) ) ;
#56 = ORIENTED_EDGE ( 'NONE', *, *, #261, .T. ) ;
#57 = LOCAL_TIME ( 15, 50, 0.000000000000000000, #260 ) ;
#58 = VERTEX_POINT ( 'NONE', #227 ) ;
#59 = VERTEX_POINT ( 'NONE', #32 ) ;
#60 = PLANE ( 'NONE',  #83 ) ;
#61 = CC_DESIGN_DATE_AND_TIME_ASSIGNMENT ( #50, #2, ( #215 ) ) ;
#62 = CARTESIAN_POINT ( 'NONE',  ( 1.175660927181456476E-16, 4.799999999999991829, 0.000000000000000000 ) ) ;
#63 = DIRECTION ( 'NONE',  ( 2.449293598294704689E-17, 1.000000000000000000, -0.000000000000000000 ) ) ;
#64 = DIRECTION ( 'NONE',  ( -1.000000000000000000, 2.449293598294704381E-17, 0.000000000000000000 ) ) ;
#65 = CC_DESIGN_APPROVAL ( #51, ( #88 ) ) ;
#66 = CALENDAR_DATE ( 2021, 5, 11 ) ;
#67 = PERSON_AND_ORGANIZATION ( #90, #259 ) ;
#68 = AXIS2_PLACEMENT_3D ( 'NONE', #138, #226, #209 ) ;
#69 = PERSON_AND_ORGANIZATION ( #90, #259 ) ;
#70 = APPROVAL ( #23, 'NON SPECIFICATO' ) ;
#71 = ORIENTED_EDGE ( 'NONE', *, *, #31, .F. ) ;
#72 = EDGE_CURVE ( 'NONE', #59, #76, #141, .T. ) ;
#73 = CONICAL_SURFACE ( 'NONE', #195, 57.80000000000000426, 0.7853981633974482790 ) ;
#74 = DIRECTION ( 'NONE',  ( 0.7071067811865474617, -0.7071067811865474617, 0.000000000000000000 ) ) ;
#75 = CARTESIAN_POINT ( 'NONE',  ( 1.224646799147350249E-16, 4.999999999999990230, 0.000000000000000000 ) ) ;
#76 = VERTEX_POINT ( 'NONE', #107 ) ;
#77 = AXIS2_PLACEMENT_3D ( 'NONE', #104, #196, #124 ) ;
#78 = DIRECTION ( 'NONE',  ( -1.000000000000000000, 2.430108317639923763E-17, 0.000000000000000000 ) ) ;
#79 = DIRECTION ( 'NONE',  ( 2.449293598294704689E-17, 1.000000000000000000, -0.000000000000000000 ) ) ;
#80 = CARTESIAN_POINT ( 'NONE',  ( 1.224646799147351235E-16, 4.999999999999994671, 0.000000000000000000 ) ) ;
#81 = ADVANCED_FACE ( 'NONE', ( #125 ), #273, .T. ) ;
#82 = VECTOR ( 'NONE', #74, 1000.000000000000114 ) ;
#83 = AXIS2_PLACEMENT_3D ( 'NONE', #80, #86, #147 ) ;
#84 = DIRECTION ( 'NONE',  ( -0.7071067811865474617, -0.7071067811865474617, 8.659560562354932858E-17 ) ) ;
#85 = DIRECTION ( 'NONE',  ( 0.7071067811865460184, 0.7071067811865489050, 8.659560562354913137E-17 ) ) ;
#86 = DIRECTION ( 'NONE',  ( 2.449293598294704689E-17, 1.000000000000000000, -0.000000000000000000 ) ) ;
#87 = CARTESIAN_POINT ( 'NONE',  ( 0.000000000000000000, 0.000000000000000000, 0.000000000000000000 ) ) ;
#88 = SECURITY_CLASSIFICATION ( '', '', #220 ) ;
#89 = PERSON_AND_ORGANIZATION ( #90, #259 ) ;
#90 = PERSON ( 'NON SPECIFICATO', 'NON SPECIFICATO', 'NON SPECIFICATO', ('NON SPECIFICATO'), ('NON SPECIFICATO'), ('NON SPECIFICATO') ) ;
#91 = DATE_TIME_ROLE ( 'classification_date' ) ;
#92 = AXIS2_PLACEMENT_3D ( 'NONE', #148, #63, #199 ) ;
#93 = ORIENTED_EDGE ( 'NONE', *, *, #132, .T. ) ;
#94 = PERSON_AND_ORGANIZATION_ROLE ( 'creator' ) ;
#95 = ORIENTED_EDGE ( 'NONE', *, *, #54, .F. ) ;
#96 = CONICAL_SURFACE ( 'NONE', #105, 58.00000000000000000, 0.7853981633974461696 ) ;
#97 = FACE_OUTER_BOUND ( 'NONE', #193, .T. ) ;
#98 = ORIENTED_EDGE ( 'NONE', *, *, #46, .F. ) ;
#99 = CARTESIAN_POINT ( 'NONE',  ( 4.898587196589193981E-18, 0.1999999999999909905, 0.000000000000000000 ) ) ;
#100 = EDGE_LOOP ( 'NONE', ( #117, #9 ) ) ;
#101 = CC_DESIGN_PERSON_AND_ORGANIZATION_ASSIGNMENT ( #89, #178, ( #88 ) ) ;
#102 = DIRECTION ( 'NONE',  ( -2.449293598294704689E-17, -1.000000000000000000, 0.000000000000000000 ) ) ;
#103 = EDGE_CURVE ( 'NONE', #232, #28, #16, .T. ) ;
#104 = CARTESIAN_POINT ( 'NONE',  ( 4.898587196589193981E-18, 0.1999999999999909905, 0.000000000000000000 ) ) ;
#105 = AXIS2_PLACEMENT_3D ( 'NONE', #21, #126, #272 ) ;
#106 = DIRECTION ( 'NONE',  ( -1.000000000000000000, 2.990902544787598715E-17, 0.000000000000000000 ) ) ;
#107 = CARTESIAN_POINT ( 'NONE',  ( -57.80000000000000426, 4.999999999999992006, 7.090704967063175491E-15 ) ) ;
#108 = CC_DESIGN_PERSON_AND_ORGANIZATION_ASSIGNMENT ( #1, #94, ( #215 ) ) ;
#109 = AXIS2_PLACEMENT_3D ( 'NONE', #265, #15, #36 ) ;
#110 = PERSON_AND_ORGANIZATION_ROLE ( 'creator' ) ;
#111 = CALENDAR_DATE ( 2021, 5, 11 ) ;
#112 = VERTEX_POINT ( 'NONE', #169 ) ;
#113 = AXIS2_PLACEMENT_3D ( 'NONE', #151, #79, #106 ) ;
#114 = MECHANICAL_CONTEXT ( 'NONE', #210, 'mechanical' ) ;
#115 = ORIENTED_EDGE ( 'NONE', *, *, #186, .T. ) ;
#116 = COORDINATED_UNIVERSAL_TIME_OFFSET ( 1, 0, .AHEAD. ) ;
#117 = ORIENTED_EDGE ( 'NONE', *, *, #197, .F. ) ;
#118 = APPROVAL_ROLE ( '' ) ;
#119 = CONICAL_SURFACE ( 'NONE', #274, 58.00000000000000000, 0.7853981633974461696 ) ;
#120 = ORIENTED_EDGE ( 'NONE', *, *, #103, .T. ) ;
#121 = ORIENTED_EDGE ( 'NONE', *, *, #208, .F. ) ;
#122 = EDGE_LOOP ( 'NONE', ( #245, #56, #121, #71 ) ) ;
#123 = EDGE_CURVE ( 'NONE', #13, #28, #198, .T. ) ;
#124 = DIRECTION ( 'NONE',  ( -1.000000000000000000, 2.430108317639923763E-17, 0.000000000000000000 ) ) ;
#125 = FACE_OUTER_BOUND ( 'NONE', #6, .T. ) ;
#126 = DIRECTION ( 'NONE',  ( 2.449293598294704689E-17, 1.000000000000000000, -0.000000000000000000 ) ) ;
#127 = PRODUCT_DEFINITION_FORMATION_WITH_SPECIFIED_SOURCE ( 'TUTTO', '', #248, .NOT_KNOWN. ) ;
#128 = DIRECTION ( 'NONE',  ( -2.449293598294704689E-17, -1.000000000000000000, 0.000000000000000000 ) ) ;
#129 = CC_DESIGN_SECURITY_CLASSIFICATION ( #88, ( #127 ) ) ;
#130 = LINE ( 'NONE', #235, #267 ) ;
#131 = PERSON_AND_ORGANIZATION_ROLE ( 'design_owner' ) ;
#132 = EDGE_CURVE ( 'NONE', #112, #13, #250, .T. ) ;
#133 = AXIS2_PLACEMENT_3D ( 'NONE', #45, #128, #179 ) ;
#134 = LINE ( 'NONE', #222, #228 ) ;
#135 = COORDINATED_UNIVERSAL_TIME_OFFSET ( 1, 0, .AHEAD. ) ;
#136 = PERSON_AND_ORGANIZATION ( #90, #259 ) ;
#137 = PRODUCT_DEFINITION_SHAPE ( 'NONE', 'NONE',  #215 ) ;
#138 = CARTESIAN_POINT ( 'NONE',  ( 1.224646799147352468E-16, 5.000000000000000000, 0.000000000000000000 ) ) ;
#139 = ADVANCED_BREP_SHAPE_REPRESENTATION ( 'DP26128_WI080', ( #40, #155 ), #34 ) ;
#140 = DIRECTION ( 'NONE',  ( -1.000000000000000000, 2.430108317639923763E-17, 0.000000000000000000 ) ) ;
#141 = CIRCLE ( 'NONE', #92, 57.80000000000000426 ) ;
#142 = AXIS2_PLACEMENT_3D ( 'NONE', #62, #253, #146 ) ;
#143 = CARTESIAN_POINT ( 'NONE',  ( -58.00000000000000000, 0.1999999999999924061, 0.000000000000000000 ) ) ;
#144 = ORIENTED_EDGE ( 'NONE', *, *, #46, .T. ) ;
#145 = DIRECTION ( 'NONE',  ( 2.449293598294704689E-17, 1.000000000000000000, -0.000000000000000000 ) ) ;
#146 = DIRECTION ( 'NONE',  ( -1.000000000000000000, 2.990902544787598715E-17, 0.000000000000000000 ) ) ;
#147 = DIRECTION ( 'NONE',  ( -1.000000000000000000, 2.449293598294704689E-17, 0.000000000000000000 ) ) ;
#148 = CARTESIAN_POINT ( 'NONE',  ( 1.224646799147350249E-16, 4.999999999999990230, 0.000000000000000000 ) ) ;
#149 = AXIS2_PLACEMENT_3D ( 'NONE', #19, #219, #234 ) ;
#150 = CC_DESIGN_PERSON_AND_ORGANIZATION_ASSIGNMENT ( #153, #110, ( #127 ) ) ;
#151 = CARTESIAN_POINT ( 'NONE',  ( 1.224646799147352468E-16, 5.000000000000000000, 0.000000000000000000 ) ) ;
#152 = APPROVAL_PERSON_ORGANIZATION ( #184, #51, #118 ) ;
#153 = PERSON_AND_ORGANIZATION ( #90, #259 ) ;
#154 = ADVANCED_FACE ( 'NONE', ( #172 ), #60, .T. ) ;
#155 = AXIS2_PLACEMENT_3D ( 'NONE', #87, #201, #157 ) ;
#156 = APPROVAL_ROLE ( '' ) ;
#157 = DIRECTION ( 'NONE',  ( 1.000000000000000000, 0.000000000000000000, 0.000000000000000000 ) ) ;
#158 = CONICAL_SURFACE ( 'NONE', #109, 57.80000000000000426, 0.7853981633974482790 ) ;
#159 = APPROVAL ( #237, 'NON SPECIFICATO' ) ;
#160 = DIRECTION ( 'NONE',  ( 2.449293598294704689E-17, 1.000000000000000000, -0.000000000000000000 ) ) ;
#161 = CARTESIAN_POINT ( 'NONE',  ( 1.175660927181456476E-16, 4.799999999999991829, 0.000000000000000000 ) ) ;
#162 = FACE_OUTER_BOUND ( 'NONE', #12, .T. ) ;
#163 = APPROVAL_STATUS ( 'not_yet_approved' ) ;
#164 = LOCAL_TIME ( 15, 50, 0.000000000000000000, #275 ) ;
#165 = ORIENTED_EDGE ( 'NONE', *, *, #132, .F. ) ;
#166 = EDGE_CURVE ( 'NONE', #76, #59, #205, .T. ) ;
#167 = EDGE_LOOP ( 'NONE', ( #11, #115, #191, #98 ) ) ;
#168 = LOCAL_TIME ( 15, 50, 0.000000000000000000, #239 ) ;
#169 = CARTESIAN_POINT ( 'NONE',  ( -57.80000000000000426, -7.257925680069695834E-15, 0.000000000000000000 ) ) ;
#170 = DIRECTION ( 'NONE',  ( 2.449293598294704689E-17, 1.000000000000000000, -0.000000000000000000 ) ) ;
#171 = AXIS2_PLACEMENT_3D ( 'NONE', #176, #217, #271 ) ;
#172 = FACE_OUTER_BOUND ( 'NONE', #7, .T. ) ;
#173 = APPLICATION_CONTEXT ( 'configuration controlled 3d designs of mechanical parts and assemblies' ) ;
#174 = FACE_OUTER_BOUND ( 'NONE', #100, .T. ) ;
#175 = CC_DESIGN_PERSON_AND_ORGANIZATION_ASSIGNMENT ( #67, #131, ( #248 ) ) ;
#176 = CARTESIAN_POINT ( 'NONE',  ( 1.224646799147350249E-16, 4.999999999999990230, 0.000000000000000000 ) ) ;
#177 = APPROVAL_DATE_TIME ( #27, #70 ) ;
#178 = PERSON_AND_ORGANIZATION_ROLE ( 'classification_officer' ) ;
#179 = DIRECTION ( 'NONE',  ( 1.000000000000000000, -2.449293598294704689E-17, 0.000000000000000000 ) ) ;
#180 = LOCAL_TIME ( 15, 50, 0.000000000000000000, #135 ) ;
#181 = ORIENTED_EDGE ( 'NONE', *, *, #72, .F. ) ;
#182 = LOCAL_TIME ( 15, 50, 0.000000000000000000, #116 ) ;
#183 = APPLICATION_PROTOCOL_DEFINITION ( 'international standard', 'config_control_design', 1994, #173 ) ;
#184 = PERSON_AND_ORGANIZATION ( #90, #259 ) ;
#185 = VECTOR ( 'NONE', #145, 1000.000000000000000 ) ;
#186 = EDGE_CURVE ( 'NONE', #76, #25, #130, .T. ) ;
#187 = LINE ( 'NONE', #263, #82 ) ;
#188 = DESIGN_CONTEXT ( 'detailed design', #173, 'design' ) ;
#189 = DATE_AND_TIME ( #10, #182 ) ;
#190 = CARTESIAN_POINT ( 'NONE',  ( 4.898587196589193981E-18, 0.1999999999999909905, 0.000000000000000000 ) ) ;
#191 = ORIENTED_EDGE ( 'NONE', *, *, #208, .T. ) ;
#192 = CIRCLE ( 'NONE', #142, 58.00000000000000000 ) ;
#193 = EDGE_LOOP ( 'NONE', ( #212, #181, #144, #243 ) ) ;
#194 = FACE_OUTER_BOUND ( 'NONE', #122, .T. ) ;
#195 = AXIS2_PLACEMENT_3D ( 'NONE', #75, #102, #213 ) ;
#196 = DIRECTION ( 'NONE',  ( 2.449293598294704689E-17, 1.000000000000000000, -0.000000000000000000 ) ) ;
#197 = EDGE_CURVE ( 'NONE', #112, #232, #252, .T. ) ;
#198 = CIRCLE ( 'NONE', #77, 58.00000000000000000 ) ;
#199 = DIRECTION ( 'NONE',  ( -1.000000000000000000, 3.001251688541188813E-17, 0.000000000000000000 ) ) ;
#200 = CIRCLE ( 'NONE', #262, 58.00000000000000000 ) ;
#201 = DIRECTION ( 'NONE',  ( 0.000000000000000000, 0.000000000000000000, 1.000000000000000000 ) ) ;
#202 = DATE_AND_TIME ( #111, #168 ) ;
#203 =( NAMED_UNIT ( * ) SI_UNIT ( $, .STERADIAN. ) SOLID_ANGLE_UNIT ( ) );
#204 = EDGE_LOOP ( 'NONE', ( #225, #120, #231, #165 ) ) ;
#205 = CIRCLE ( 'NONE', #171, 57.80000000000000426 ) ;
#206 = DATE_AND_TIME ( #223, #180 ) ;
#207 = ORIENTED_EDGE ( 'NONE', *, *, #72, .T. ) ;
#208 = EDGE_CURVE ( 'NONE', #25, #58, #192, .T. ) ;
#209 = DIRECTION ( 'NONE',  ( -1.000000000000000000, 2.990902544787598715E-17, 0.000000000000000000 ) ) ;
#210 = APPLICATION_CONTEXT ( 'configuration controlled 3d designs of mechanical parts and assemblies' ) ;
#211 = ORIENTED_EDGE ( 'NONE', *, *, #166, .T. ) ;
#212 = ORIENTED_EDGE ( 'NONE', *, *, #186, .F. ) ;
#213 = DIRECTION ( 'NONE',  ( 1.000000000000000000, -3.001251688541188813E-17, 0.000000000000000000 ) ) ;
#214 = FACE_OUTER_BOUND ( 'NONE', #167, .T. ) ;
#215 = PRODUCT_DEFINITION ( 'NON CONOSCIUTO', '', #127, #188 ) ;
#216 = CARTESIAN_POINT ( 'NONE',  ( 58.00000000000000000, 0.1999999999999895750, 7.102951435054648059E-15 ) ) ;
#217 = DIRECTION ( 'NONE',  ( 2.449293598294704689E-17, 1.000000000000000000, -0.000000000000000000 ) ) ;
#218 = CIRCLE ( 'NONE', #149, 57.80000000000000426 ) ;
#219 = DIRECTION ( 'NONE',  ( 2.449293598294704689E-17, 1.000000000000000000, -0.000000000000000000 ) ) ;
#220 = SECURITY_CLASSIFICATION_LEVEL ( 'unclassified' ) ;
#221 = DIRECTION ( 'NONE',  ( 2.449293598294704689E-17, 1.000000000000000000, -0.000000000000000000 ) ) ;
#222 = CARTESIAN_POINT ( 'NONE',  ( 58.00000000000000000, 4.999999999999998224, 7.102951435054648059E-15 ) ) ;
#223 = CALENDAR_DATE ( 2021, 5, 11 ) ;
#224 = APPLICATION_PROTOCOL_DEFINITION ( 'international standard', 'config_control_design', 1994, #210 ) ;
#225 = ORIENTED_EDGE ( 'NONE', *, *, #197, .T. ) ;
#226 = DIRECTION ( 'NONE',  ( 2.449293598294704689E-17, 1.000000000000000000, -0.000000000000000000 ) ) ;
#227 = CARTESIAN_POINT ( 'NONE',  ( 58.00000000000000000, 4.799999999999990052, 0.000000000000000000 ) ) ;
#228 = VECTOR ( 'NONE', #221, 1000.000000000000000 ) ;
#229 = SHAPE_DEFINITION_REPRESENTATION ( #137, #139 ) ;
#230 = ORIENTED_EDGE ( 'NONE', *, *, #233, .T. ) ;
#231 = ORIENTED_EDGE ( 'NONE', *, *, #123, .F. ) ;
#232 = VERTEX_POINT ( 'NONE', #42 ) ;
#233 = EDGE_CURVE ( 'NONE', #232, #112, #218, .T. ) ;
#234 = DIRECTION ( 'NONE',  ( -1.000000000000000000, 2.449293598294704381E-17, 0.000000000000000000 ) ) ;
#235 = CARTESIAN_POINT ( 'NONE',  ( -57.80000000000000426, 4.999999999999992006, 7.078458499071702134E-15 ) ) ;
#236 = AXIS2_PLACEMENT_3D ( 'NONE', #41, #170, #64 ) ;
#237 = APPROVAL_STATUS ( 'not_yet_approved' ) ;
#238 = CC_DESIGN_DATE_AND_TIME_ASSIGNMENT ( #202, #91, ( #88 ) ) ;
#239 = COORDINATED_UNIVERSAL_TIME_OFFSET ( 1, 0, .AHEAD. ) ;
#240 = CIRCLE ( 'NONE', #33, 58.00000000000000000 ) ;
#241 = ORIENTED_EDGE ( 'NONE', *, *, #31, .T. ) ;
#242 = CALENDAR_DATE ( 2021, 5, 11 ) ;
#243 = ORIENTED_EDGE ( 'NONE', *, *, #54, .T. ) ;
#244 = DIRECTION ( 'NONE',  ( 2.449293598294704689E-17, 1.000000000000000000, -0.000000000000000000 ) ) ;
#245 = ORIENTED_EDGE ( 'NONE', *, *, #123, .T. ) ;
#246 = CC_DESIGN_APPROVAL ( #159, ( #215 ) ) ;
#247 = ORIENTED_EDGE ( 'NONE', *, *, #261, .F. ) ;
#248 = PRODUCT ( 'DP26128_WI080', 'DP26128_WI080', '', ( #114 ) ) ;
#249 = LINE ( 'NONE', #53, #185 ) ;
#250 = LINE ( 'NONE', #254, #26 ) ;
#251 = ADVANCED_FACE ( 'NONE', ( #43 ), #96, .T. ) ;
#252 = CIRCLE ( 'NONE', #236, 57.80000000000000426 ) ;
#253 = DIRECTION ( 'NONE',  ( 2.449293598294704689E-17, 1.000000000000000000, -0.000000000000000000 ) ) ;
#254 = CARTESIAN_POINT ( 'NONE',  ( -58.00000000000000000, 0.1999999999999924061, 0.000000000000000000 ) ) ;
#255 = PLANE ( 'NONE',  #133 ) ;
#256 = ADVANCED_FACE ( 'NONE', ( #174 ), #255, .T. ) ;
#257 = APPROVAL_ROLE ( '' ) ;
#258 = PERSON_AND_ORGANIZATION_ROLE ( 'design_supplier' ) ;
#259 = ORGANIZATION ( 'NON SPECIFICATO', 'NON SPECIFICATO', '' ) ;
#260 = COORDINATED_UNIVERSAL_TIME_OFFSET ( 1, 0, .AHEAD. ) ;
#261 = EDGE_CURVE ( 'NONE', #28, #58, #134, .T. ) ;
#262 = AXIS2_PLACEMENT_3D ( 'NONE', #99, #266, #78 ) ;
#263 = CARTESIAN_POINT ( 'NONE',  ( 57.80000000000000426, 4.999999999999988454, 0.000000000000000000 ) ) ;
#264 = APPROVAL_DATE_TIME ( #189, #51 ) ;
#265 = CARTESIAN_POINT ( 'NONE',  ( 1.224646799147350249E-16, 4.999999999999990230, 0.000000000000000000 ) ) ;
#266 = DIRECTION ( 'NONE',  ( 2.449293598294704689E-17, 1.000000000000000000, -0.000000000000000000 ) ) ;
#267 = VECTOR ( 'NONE', #84, 1000.000000000000114 ) ;
#268 = CARTESIAN_POINT ( 'NONE',  ( 58.00000000000000000, 0.1999999999999895750, 7.102951435054648059E-15 ) ) ;
#269 = CYLINDRICAL_SURFACE ( 'NONE', #68, 58.00000000000000000 ) ;
#270 = DIRECTION ( 'NONE',  ( -0.7071067811865460184, 0.7071067811865489050, 0.000000000000000000 ) ) ;
#271 = DIRECTION ( 'NONE',  ( -1.000000000000000000, 3.001251688541188813E-17, 0.000000000000000000 ) ) ;
#272 = DIRECTION ( 'NONE',  ( -1.000000000000000000, 2.430108317639923763E-17, 0.000000000000000000 ) ) ;
#273 = CYLINDRICAL_SURFACE ( 'NONE', #113, 58.00000000000000000 ) ;
#274 = AXIS2_PLACEMENT_3D ( 'NONE', #190, #160, #140 ) ;
#275 = COORDINATED_UNIVERSAL_TIME_OFFSET ( 1, 0, .AHEAD. ) ;
ENDSEC;
END-ISO-10303-21;
