ISO-10303-21;
HEADER;
FILE_DESCRIPTION (( 'STEP AP203' ),
    '1' );
FILE_NAME ('DP26123_WI096.step',
    '2021-11-05T14:52:42',
    ( '' ),
    ( '' ),
    'SwSTEP 2.0',
    'SolidWorks 2021',
    '' );
FILE_SCHEMA (( 'CONFIG_CONTROL_DESIGN' ));
ENDSEC;

DATA;
#1 = AXIS2_PLACEMENT_3D ( 'NONE', #194, #254, #62 ) ;
#2 = CARTESIAN_POINT ( 'NONE',  ( 1.224646799147351235E-16, 4.999999999999994671, 0.000000000000000000 ) ) ;
#3 =( NAMED_UNIT ( * ) PLANE_ANGLE_UNIT ( ) SI_UNIT ( $, .RADIAN. ) );
#4 = CARTESIAN_POINT ( 'NONE',  ( 1.224646799147349756E-16, 4.999999999999989342, 0.000000000000000000 ) ) ;
#5 = AXIS2_PLACEMENT_3D ( 'NONE', #4, #174, #190 ) ;
#6 = DIRECTION ( 'NONE',  ( -1.000000000000000000, 2.449293598294704689E-17, 0.000000000000000000 ) ) ;
#7 = PERSON ( 'NON SPECIFICATO', 'NON SPECIFICATO', 'NON SPECIFICATO', ('NON SPECIFICATO'), ('NON SPECIFICATO'), ('NON SPECIFICATO') ) ;
#8 = CALENDAR_DATE ( 2021, 5, 11 ) ;
#9 = CIRCLE ( 'NONE', #267, 71.29999999999998295 ) ;
#10 = COORDINATED_UNIVERSAL_TIME_OFFSET ( 1, 0, .AHEAD. ) ;
#11 = APPLICATION_CONTEXT ( 'configuration controlled 3d designs of mechanical parts and assemblies' ) ;
#12 = CC_DESIGN_PERSON_AND_ORGANIZATION_ASSIGNMENT ( #24, #265, ( #126 ) ) ;
#13 = CARTESIAN_POINT ( 'NONE',  ( 4.898587196589146218E-18, 0.1999999999999892419, 0.000000000000000000 ) ) ;
#14 = VECTOR ( 'NONE', #249, 999.9999999999998863 ) ;
#15 = LINE ( 'NONE', #210, #14 ) ;
#16 = EDGE_CURVE ( 'NONE', #99, #54, #123, .T. ) ;
#17 = DIRECTION ( 'NONE',  ( -2.449293598294704689E-17, -1.000000000000000000, 0.000000000000000000 ) ) ;
#18 = ORIENTED_EDGE ( 'NONE', *, *, #110, .T. ) ;
#19 = DIRECTION ( 'NONE',  ( 2.449293598294704689E-17, 1.000000000000000000, -0.000000000000000000 ) ) ;
#20 = LOCAL_TIME ( 15, 52, 42.00000000000000000, #10 ) ;
#21 = CARTESIAN_POINT ( 'NONE',  ( 1.224646799147349756E-16, 4.999999999999989342, 0.000000000000000000 ) ) ;
#22 = EDGE_CURVE ( 'NONE', #96, #158, #81, .T. ) ;
#23 = CARTESIAN_POINT ( 'NONE',  ( -2.407412430484044816E-31, -1.040834085586084257E-14, 0.000000000000000000 ) ) ;
#24 = PERSON_AND_ORGANIZATION ( #7, #261 ) ;
#25 = COORDINATED_UNIVERSAL_TIME_OFFSET ( 1, 0, .AHEAD. ) ;
#26 = CC_DESIGN_PERSON_AND_ORGANIZATION_ASSIGNMENT ( #159, #244, ( #160 ) ) ;
#27 = PERSON_AND_ORGANIZATION_ROLE ( 'creator' ) ;
#28 = LOCAL_TIME ( 15, 52, 42.00000000000000000, #236 ) ;
#29 = PERSON_AND_ORGANIZATION_ROLE ( 'design_supplier' ) ;
#30 = DIRECTION ( 'NONE',  ( 2.449293598294704689E-17, 1.000000000000000000, -0.000000000000000000 ) ) ;
#31 = EDGE_LOOP ( 'NONE', ( #184, #147 ) ) ;
#32 = CIRCLE ( 'NONE', #39, 71.29999999999996874 ) ;
#33 = CARTESIAN_POINT ( 'NONE',  ( 4.898587196589146218E-18, 0.1999999999999892419, 0.000000000000000000 ) ) ;
#34 = PRODUCT_RELATED_PRODUCT_CATEGORY ( 'detail', '', ( #106 ) ) ;
#35 = ORIENTED_EDGE ( 'NONE', *, *, #202, .F. ) ;
#36 = CARTESIAN_POINT ( 'NONE',  ( -71.50000000000000000, 4.799999999999991829, 8.756224613903574137E-15 ) ) ;
#37 = FACE_OUTER_BOUND ( 'NONE', #273, .T. ) ;
#38 = DIRECTION ( 'NONE',  ( -2.449293598294704689E-17, -1.000000000000000000, 0.000000000000000000 ) ) ;
#39 = AXIS2_PLACEMENT_3D ( 'NONE', #23, #215, #103 ) ;
#40 = EDGE_CURVE ( 'NONE', #93, #54, #15, .T. ) ;
#41 = CARTESIAN_POINT ( 'NONE',  ( 71.50000000000000000, 4.999999999999998224, 8.756224613903574137E-15 ) ) ;
#42 = CARTESIAN_POINT ( 'NONE',  ( 4.898587196589146218E-18, 0.1999999999999892419, 0.000000000000000000 ) ) ;
#43 = PERSON_AND_ORGANIZATION ( #7, #261 ) ;
#44 = CONICAL_SURFACE ( 'NONE', #257, 71.29999999999998295, 0.7853981633974634891 ) ;
#45 = EDGE_LOOP ( 'NONE', ( #73, #118 ) ) ;
#46 = COORDINATED_UNIVERSAL_TIME_OFFSET ( 1, 0, .AHEAD. ) ;
#47 = EDGE_CURVE ( 'NONE', #203, #54, #170, .T. ) ;
#48 = DATE_AND_TIME ( #219, #196 ) ;
#49 = FACE_OUTER_BOUND ( 'NONE', #241, .T. ) ;
#50 = CARTESIAN_POINT ( 'NONE',  ( -71.50000000000000000, 0.1999999999999910183, 0.000000000000000000 ) ) ;
#51 = AXIS2_PLACEMENT_3D ( 'NONE', #21, #38, #258 ) ;
#52 = APPROVAL ( #240, 'NON SPECIFICATO' ) ;
#53 = DIRECTION ( 'NONE',  ( -0.7071067811865827668, 0.7071067811865122676, 0.000000000000000000 ) ) ;
#54 = VERTEX_POINT ( 'NONE', #36 ) ;
#55 = DIRECTION ( 'NONE',  ( -1.000000000000000000, 2.426186679687842211E-17, 0.000000000000000000 ) ) ;
#56 = APPROVAL ( #112, 'NON SPECIFICATO' ) ;
#57 = DIRECTION ( 'NONE',  ( 2.449293598294704689E-17, 1.000000000000000000, -0.000000000000000000 ) ) ;
#58 = LINE ( 'NONE', #149, #199 ) ;
#59 = ADVANCED_FACE ( 'NONE', ( #168 ), #164, .T. ) ;
#60 =( NAMED_UNIT ( * ) SI_UNIT ( $, .STERADIAN. ) SOLID_ANGLE_UNIT ( ) );
#61 = CONICAL_SURFACE ( 'NONE', #51, 71.29999999999998295, 0.7853981633974634891 ) ;
#62 = DIRECTION ( 'NONE',  ( -1.000000000000000000, 2.464095846557964707E-17, 0.000000000000000000 ) ) ;
#63 = CARTESIAN_POINT ( 'NONE',  ( 71.29999999999998295, 4.999999999999987566, 0.000000000000000000 ) ) ;
#64 = APPROVAL_ROLE ( '' ) ;
#65 = CC_DESIGN_DATE_AND_TIME_ASSIGNMENT ( #71, #135, ( #126 ) ) ;
#66 = ORIENTED_EDGE ( 'NONE', *, *, #78, .F. ) ;
#67 = AXIS2_PLACEMENT_3D ( 'NONE', #179, #114, #157 ) ;
#68 = COORDINATED_UNIVERSAL_TIME_OFFSET ( 1, 0, .AHEAD. ) ;
#69 = ORIENTED_EDGE ( 'NONE', *, *, #120, .F. ) ;
#70 = EDGE_CURVE ( 'NONE', #203, #182, #214, .T. ) ;
#71 = DATE_AND_TIME ( #111, #248 ) ;
#72 = APPROVAL_PERSON_ORGANIZATION ( #90, #134, #64 ) ;
#73 = ORIENTED_EDGE ( 'NONE', *, *, #113, .T. ) ;
#74 = DIRECTION ( 'NONE',  ( 2.449293598294704689E-17, 1.000000000000000000, -0.000000000000000000 ) ) ;
#75 = EDGE_LOOP ( 'NONE', ( #220, #101, #116, #79 ) ) ;
#76 = ORIENTED_EDGE ( 'NONE', *, *, #16, .F. ) ;
#77 = ORIENTED_EDGE ( 'NONE', *, *, #47, .T. ) ;
#78 = EDGE_CURVE ( 'NONE', #96, #203, #95, .T. ) ;
#79 = ORIENTED_EDGE ( 'NONE', *, *, #16, .T. ) ;
#80 = DIRECTION ( 'NONE',  ( -2.449293598294704689E-17, -1.000000000000000000, 0.000000000000000000 ) ) ;
#81 = CIRCLE ( 'NONE', #245, 71.29999999999996874 ) ;
#82 = DIRECTION ( 'NONE',  ( 2.449293598294704689E-17, 1.000000000000000000, -0.000000000000000000 ) ) ;
#83 = PLANE ( 'NONE',  #253 ) ;
#84 = FACE_OUTER_BOUND ( 'NONE', #31, .T. ) ;
#85 = CC_DESIGN_APPROVAL ( #52, ( #223 ) ) ;
#86 = DIRECTION ( 'NONE',  ( -1.000000000000000000, 2.426186679687842211E-17, 0.000000000000000000 ) ) ;
#87 = CC_DESIGN_PERSON_AND_ORGANIZATION_ASSIGNMENT ( #43, #29, ( #223 ) ) ;
#88 = DATE_AND_TIME ( #8, #191 ) ;
#89 = AXIS2_PLACEMENT_3D ( 'NONE', #171, #235, #86 ) ;
#90 = PERSON_AND_ORGANIZATION ( #7, #261 ) ;
#91 = ADVANCED_FACE ( 'NONE', ( #49 ), #175, .T. ) ;
#92 = SECURITY_CLASSIFICATION_LEVEL ( 'unclassified' ) ;
#93 = VERTEX_POINT ( 'NONE', #225 ) ;
#94 = CIRCLE ( 'NONE', #5, 71.29999999999998295 ) ;
#95 = LINE ( 'NONE', #50, #186 ) ;
#96 = VERTEX_POINT ( 'NONE', #141 ) ;
#97 = UNCERTAINTY_MEASURE_WITH_UNIT (LENGTH_MEASURE( 1.000000000000000082E-05 ), #127, 'distance_accuracy_value', 'NONE');
#98 = DIRECTION ( 'NONE',  ( 1.000000000000000000, -2.432992252421889959E-17, 0.000000000000000000 ) ) ;
#99 = VERTEX_POINT ( 'NONE', #227 ) ;
#100 = ADVANCED_FACE ( 'NONE', ( #119 ), #44, .T. ) ;
#101 = ORIENTED_EDGE ( 'NONE', *, *, #113, .F. ) ;
#102 = DIRECTION ( 'NONE',  ( 0.7071067811865583419, -0.7071067811865368036, 0.000000000000000000 ) ) ;
#103 = DIRECTION ( 'NONE',  ( -1.000000000000000000, 2.449293598294705305E-17, 0.000000000000000000 ) ) ;
#104 = AXIS2_PLACEMENT_3D ( 'NONE', #122, #19, #55 ) ;
#105 = DIRECTION ( 'NONE',  ( -1.000000000000000000, 2.426186679687842211E-17, 0.000000000000000000 ) ) ;
#106 = PRODUCT ( 'DP26123_WI096', 'DP26123_WI096', '', ( #138 ) ) ;
#107 = MANIFOLD_SOLID_BREP ( 'Rivoluzione1', #226 ) ;
#108 = DIRECTION ( 'NONE',  ( -1.000000000000000000, 2.432992252421889959E-17, 0.000000000000000000 ) ) ;
#109 = PERSON_AND_ORGANIZATION ( #7, #261 ) ;
#110 = EDGE_CURVE ( 'NONE', #158, #96, #32, .T. ) ;
#111 = CALENDAR_DATE ( 2021, 5, 11 ) ;
#112 = APPROVAL_STATUS ( 'not_yet_approved' ) ;
#113 = EDGE_CURVE ( 'NONE', #266, #93, #9, .T. ) ;
#114 = DIRECTION ( 'NONE',  ( 0.000000000000000000, 0.000000000000000000, 1.000000000000000000 ) ) ;
#115 = DESIGN_CONTEXT ( 'detailed design', #11, 'design' ) ;
#116 = ORIENTED_EDGE ( 'NONE', *, *, #192, .T. ) ;
#117 = AXIS2_PLACEMENT_3D ( 'NONE', #42, #57, #259 ) ;
#118 = ORIENTED_EDGE ( 'NONE', *, *, #212, .T. ) ;
#119 = FACE_OUTER_BOUND ( 'NONE', #75, .T. ) ;
#120 = EDGE_CURVE ( 'NONE', #182, #203, #205, .T. ) ;
#121 = VECTOR ( 'NONE', #233, 1000.000000000000000 ) ;
#122 = CARTESIAN_POINT ( 'NONE',  ( 1.224646799147352468E-16, 5.000000000000000000, 0.000000000000000000 ) ) ;
#123 = CIRCLE ( 'NONE', #262, 71.50000000000000000 ) ;
#124 = DIRECTION ( 'NONE',  ( 2.449293598294704689E-17, 1.000000000000000000, -0.000000000000000000 ) ) ;
#125 = CARTESIAN_POINT ( 'NONE',  ( 71.50000000000000000, 0.1999999999999874933, 8.756224613903574137E-15 ) ) ;
#126 = PRODUCT_DEFINITION ( 'NON CONOSCIUTO', '', #223, #115 ) ;
#127 =( LENGTH_UNIT ( ) NAMED_UNIT ( * ) SI_UNIT ( .MILLI., .METRE. ) );
#128 = AXIS2_PLACEMENT_3D ( 'NONE', #33, #30, #204 ) ;
#129 = APPROVAL_PERSON_ORGANIZATION ( #156, #56, #264 ) ;
#130 = DIRECTION ( 'NONE',  ( 1.000000000000000000, -2.449293598294704689E-17, 0.000000000000000000 ) ) ;
#131 = APPROVAL_ROLE ( '' ) ;
#132 = CONICAL_SURFACE ( 'NONE', #117, 71.50000000000000000, 0.7853981633974981280 ) ;
#133 = DATE_AND_TIME ( #243, #28 ) ;
#134 = APPROVAL ( #222, 'NON SPECIFICATO' ) ;
#135 = DATE_TIME_ROLE ( 'creation_date' ) ;
#136 = ORIENTED_EDGE ( 'NONE', *, *, #70, .F. ) ;
#137 = AXIS2_PLACEMENT_3D ( 'NONE', #151, #80, #130 ) ;
#138 = MECHANICAL_CONTEXT ( 'NONE', #213, 'mechanical' ) ;
#139 = DIRECTION ( 'NONE',  ( -1.000000000000000000, 2.464095846557964707E-17, 0.000000000000000000 ) ) ;
#140 = CC_DESIGN_APPROVAL ( #134, ( #160 ) ) ;
#141 = CARTESIAN_POINT ( 'NONE',  ( -71.29999999999996874, -8.661994520276718344E-15, 0.000000000000000000 ) ) ;
#142 = ADVANCED_FACE ( 'NONE', ( #193 ), #211, .T. ) ;
#143 = ORIENTED_EDGE ( 'NONE', *, *, #202, .T. ) ;
#144 = ADVANCED_BREP_SHAPE_REPRESENTATION ( 'DP26123_WI096', ( #107, #67 ), #272 ) ;
#145 = ORIENTED_EDGE ( 'NONE', *, *, #271, .T. ) ;
#146 = AXIS2_PLACEMENT_3D ( 'NONE', #232, #82, #105 ) ;
#147 = ORIENTED_EDGE ( 'NONE', *, *, #110, .F. ) ;
#148 = DIRECTION ( 'NONE',  ( 2.449293598294704689E-17, 1.000000000000000000, -0.000000000000000000 ) ) ;
#149 = CARTESIAN_POINT ( 'NONE',  ( 71.29999999999998295, 4.999999999999987566, 0.000000000000000000 ) ) ;
#150 = CC_DESIGN_APPROVAL ( #56, ( #126 ) ) ;
#151 = CARTESIAN_POINT ( 'NONE',  ( -1.283194470045484051E-31, -5.239039006752375823E-15, 0.000000000000000000 ) ) ;
#152 = PERSON_AND_ORGANIZATION_ROLE ( 'design_owner' ) ;
#153 = APPLICATION_PROTOCOL_DEFINITION ( 'international standard', 'config_control_design', 1994, #11 ) ;
#154 = ORIENTED_EDGE ( 'NONE', *, *, #78, .T. ) ;
#155 = VECTOR ( 'NONE', #124, 1000.000000000000000 ) ;
#156 = PERSON_AND_ORGANIZATION ( #7, #261 ) ;
#157 = DIRECTION ( 'NONE',  ( 1.000000000000000000, 0.000000000000000000, 0.000000000000000000 ) ) ;
#158 = VERTEX_POINT ( 'NONE', #255 ) ;
#159 = PERSON_AND_ORGANIZATION ( #7, #261 ) ;
#160 = SECURITY_CLASSIFICATION ( '', '', #92 ) ;
#161 = ADVANCED_FACE ( 'NONE', ( #195 ), #61, .T. ) ;
#162 = ORIENTED_EDGE ( 'NONE', *, *, #40, .T. ) ;
#163 = ORIENTED_EDGE ( 'NONE', *, *, #173, .T. ) ;
#164 = CYLINDRICAL_SURFACE ( 'NONE', #104, 71.50000000000000000 ) ;
#165 = ADVANCED_FACE ( 'NONE', ( #84 ), #234, .T. ) ;
#166 = VECTOR ( 'NONE', #252, 1000.000000000000000 ) ;
#167 = ORIENTED_EDGE ( 'NONE', *, *, #47, .F. ) ;
#168 = FACE_OUTER_BOUND ( 'NONE', #251, .T. ) ;
#169 = PRODUCT_DEFINITION_SHAPE ( 'NONE', 'NONE',  #126 ) ;
#170 = LINE ( 'NONE', #268, #166 ) ;
#171 = CARTESIAN_POINT ( 'NONE',  ( 1.175660927181455983E-16, 4.799999999999990052, 0.000000000000000000 ) ) ;
#172 = DIRECTION ( 'NONE',  ( 2.449293598294704689E-17, 1.000000000000000000, -0.000000000000000000 ) ) ;
#173 = EDGE_CURVE ( 'NONE', #54, #99, #218, .T. ) ;
#174 = DIRECTION ( 'NONE',  ( 2.449293598294704689E-17, 1.000000000000000000, -0.000000000000000000 ) ) ;
#175 = CONICAL_SURFACE ( 'NONE', #230, 71.50000000000000000, 0.7853981633974981280 ) ;
#176 = CARTESIAN_POINT ( 'NONE',  ( 71.50000000000000000, 0.1999999999999874933, 8.756224613903574137E-15 ) ) ;
#177 = APPROVAL_DATE_TIME ( #88, #134 ) ;
#178 = CC_DESIGN_PERSON_AND_ORGANIZATION_ASSIGNMENT ( #109, #152, ( #106 ) ) ;
#179 = CARTESIAN_POINT ( 'NONE',  ( 0.000000000000000000, 0.000000000000000000, 0.000000000000000000 ) ) ;
#180 = APPLICATION_PROTOCOL_DEFINITION ( 'international standard', 'config_control_design', 1994, #213 ) ;
#181 = CALENDAR_DATE ( 2021, 5, 11 ) ;
#182 = VERTEX_POINT ( 'NONE', #176 ) ;
#183 = CARTESIAN_POINT ( 'NONE',  ( -2.407412430484044816E-31, -1.040834085586084257E-14, 0.000000000000000000 ) ) ;
#184 = ORIENTED_EDGE ( 'NONE', *, *, #22, .F. ) ;
#185 = CC_DESIGN_DATE_AND_TIME_ASSIGNMENT ( #48, #197, ( #160 ) ) ;
#186 = VECTOR ( 'NONE', #53, 1000.000000000000000 ) ;
#187 = ORIENTED_EDGE ( 'NONE', *, *, #22, .T. ) ;
#188 = ORIENTED_EDGE ( 'NONE', *, *, #192, .F. ) ;
#189 = LINE ( 'NONE', #41, #155 ) ;
#190 = DIRECTION ( 'NONE',  ( -1.000000000000000000, 2.432992252421889959E-17, 0.000000000000000000 ) ) ;
#191 = LOCAL_TIME ( 15, 52, 42.00000000000000000, #25 ) ;
#192 = EDGE_CURVE ( 'NONE', #266, #99, #58, .T. ) ;
#193 = FACE_OUTER_BOUND ( 'NONE', #228, .T. ) ;
#194 = CARTESIAN_POINT ( 'NONE',  ( 4.898587196589146218E-18, 0.1999999999999892419, 0.000000000000000000 ) ) ;
#195 = FACE_OUTER_BOUND ( 'NONE', #247, .T. ) ;
#196 = LOCAL_TIME ( 15, 52, 42.00000000000000000, #46 ) ;
#197 = DATE_TIME_ROLE ( 'classification_date' ) ;
#198 = PERSON_AND_ORGANIZATION ( #7, #261 ) ;
#199 = VECTOR ( 'NONE', #102, 999.9999999999998863 ) ;
#200 = CC_DESIGN_SECURITY_CLASSIFICATION ( #160, ( #223 ) ) ;
#201 = APPROVAL_DATE_TIME ( #133, #52 ) ;
#202 = EDGE_CURVE ( 'NONE', #182, #99, #189, .T. ) ;
#203 = VERTEX_POINT ( 'NONE', #216 ) ;
#204 = DIRECTION ( 'NONE',  ( -1.000000000000000000, 2.464095846557964707E-17, 0.000000000000000000 ) ) ;
#205 = CIRCLE ( 'NONE', #1, 71.50000000000000000 ) ;
#206 = DIRECTION ( 'NONE',  ( 2.449293598294704689E-17, 1.000000000000000000, -0.000000000000000000 ) ) ;
#207 = CARTESIAN_POINT ( 'NONE',  ( 1.224646799147349756E-16, 4.999999999999989342, 0.000000000000000000 ) ) ;
#208 = CARTESIAN_POINT ( 'NONE',  ( 1.175660927181455983E-16, 4.799999999999990052, 0.000000000000000000 ) ) ;
#209 = APPROVAL_PERSON_ORGANIZATION ( #198, #52, #131 ) ;
#210 = CARTESIAN_POINT ( 'NONE',  ( -71.29999999999998295, 4.999999999999991118, 8.731731677920627423E-15 ) ) ;
#211 = CYLINDRICAL_SURFACE ( 'NONE', #146, 71.50000000000000000 ) ;
#212 = EDGE_CURVE ( 'NONE', #93, #266, #94, .T. ) ;
#213 = APPLICATION_CONTEXT ( 'configuration controlled 3d designs of mechanical parts and assemblies' ) ;
#214 = CIRCLE ( 'NONE', #128, 71.50000000000000000 ) ;
#215 = DIRECTION ( 'NONE',  ( 2.449293598294704689E-17, 1.000000000000000000, -0.000000000000000000 ) ) ;
#216 = CARTESIAN_POINT ( 'NONE',  ( -71.50000000000000000, 0.1999999999999910183, 0.000000000000000000 ) ) ;
#217 = APPROVAL_DATE_TIME ( #238, #56 ) ;
#218 = CIRCLE ( 'NONE', #89, 71.50000000000000000 ) ;
#219 = CALENDAR_DATE ( 2021, 5, 11 ) ;
#220 = ORIENTED_EDGE ( 'NONE', *, *, #40, .F. ) ;
#221 = ORIENTED_EDGE ( 'NONE', *, *, #212, .F. ) ;
#222 = APPROVAL_STATUS ( 'not_yet_approved' ) ;
#223 = PRODUCT_DEFINITION_FORMATION_WITH_SPECIFIED_SOURCE ( 'TUTTO', '', #106, .NOT_KNOWN. ) ;
#224 = PERSON_AND_ORGANIZATION ( #7, #261 ) ;
#225 = CARTESIAN_POINT ( 'NONE',  ( -71.29999999999998295, 4.999999999999991118, 8.743978145912101569E-15 ) ) ;
#226 = CLOSED_SHELL ( 'NONE', ( #242, #142, #161, #250, #100, #59, #91, #165 ) ) ;
#227 = CARTESIAN_POINT ( 'NONE',  ( 71.50000000000000000, 4.799999999999988276, 0.000000000000000000 ) ) ;
#228 = EDGE_LOOP ( 'NONE', ( #274, #143, #263, #167 ) ) ;
#229 = DIRECTION ( 'NONE',  ( 2.449293598294704689E-17, 1.000000000000000000, -0.000000000000000000 ) ) ;
#230 = AXIS2_PLACEMENT_3D ( 'NONE', #13, #74, #139 ) ;
#231 = LINE ( 'NONE', #125, #121 ) ;
#232 = CARTESIAN_POINT ( 'NONE',  ( 1.224646799147352468E-16, 5.000000000000000000, 0.000000000000000000 ) ) ;
#233 = DIRECTION ( 'NONE',  ( 0.7071067811865827668, 0.7071067811865122676, 8.659560562355364266E-17 ) ) ;
#234 = PLANE ( 'NONE',  #137 ) ;
#235 = DIRECTION ( 'NONE',  ( 2.449293598294704689E-17, 1.000000000000000000, -0.000000000000000000 ) ) ;
#236 = COORDINATED_UNIVERSAL_TIME_OFFSET ( 1, 0, .AHEAD. ) ;
#237 = CC_DESIGN_PERSON_AND_ORGANIZATION_ASSIGNMENT ( #224, #27, ( #223 ) ) ;
#238 = DATE_AND_TIME ( #181, #20 ) ;
#239 = ORIENTED_EDGE ( 'NONE', *, *, #120, .T. ) ;
#240 = APPROVAL_STATUS ( 'not_yet_approved' ) ;
#241 = EDGE_LOOP ( 'NONE', ( #269, #18, #154, #69 ) ) ;
#242 = ADVANCED_FACE ( 'NONE', ( #37 ), #132, .T. ) ;
#243 = CALENDAR_DATE ( 2021, 5, 11 ) ;
#244 = PERSON_AND_ORGANIZATION_ROLE ( 'classification_officer' ) ;
#245 = AXIS2_PLACEMENT_3D ( 'NONE', #183, #206, #270 ) ;
#246 = DIRECTION ( 'NONE',  ( -1.000000000000000000, 2.426186679687842211E-17, 0.000000000000000000 ) ) ;
#247 = EDGE_LOOP ( 'NONE', ( #221, #162, #163, #188 ) ) ;
#248 = LOCAL_TIME ( 15, 52, 42.00000000000000000, #68 ) ;
#249 = DIRECTION ( 'NONE',  ( -0.7071067811865583419, -0.7071067811865368036, 8.659560562355063513E-17 ) ) ;
#250 = ADVANCED_FACE ( 'NONE', ( #275 ), #83, .T. ) ;
#251 = EDGE_LOOP ( 'NONE', ( #35, #239, #77, #76 ) ) ;
#252 = DIRECTION ( 'NONE',  ( 2.449293598294704689E-17, 1.000000000000000000, -0.000000000000000000 ) ) ;
#253 = AXIS2_PLACEMENT_3D ( 'NONE', #2, #148, #6 ) ;
#254 = DIRECTION ( 'NONE',  ( 2.449293598294704689E-17, 1.000000000000000000, -0.000000000000000000 ) ) ;
#255 = CARTESIAN_POINT ( 'NONE',  ( 71.29999999999996874, -1.215468719144496679E-14, 8.743978145912099991E-15 ) ) ;
#256 = CARTESIAN_POINT ( 'NONE',  ( 1.224646799147349756E-16, 4.999999999999989342, 0.000000000000000000 ) ) ;
#257 = AXIS2_PLACEMENT_3D ( 'NONE', #207, #17, #98 ) ;
#258 = DIRECTION ( 'NONE',  ( 1.000000000000000000, -2.432992252421889959E-17, 0.000000000000000000 ) ) ;
#259 = DIRECTION ( 'NONE',  ( -1.000000000000000000, 2.464095846557964707E-17, 0.000000000000000000 ) ) ;
#260 = SHAPE_DEFINITION_REPRESENTATION ( #169, #144 ) ;
#261 = ORGANIZATION ( 'NON SPECIFICATO', 'NON SPECIFICATO', '' ) ;
#262 = AXIS2_PLACEMENT_3D ( 'NONE', #208, #229, #246 ) ;
#263 = ORIENTED_EDGE ( 'NONE', *, *, #173, .F. ) ;
#264 = APPROVAL_ROLE ( '' ) ;
#265 = PERSON_AND_ORGANIZATION_ROLE ( 'creator' ) ;
#266 = VERTEX_POINT ( 'NONE', #63 ) ;
#267 = AXIS2_PLACEMENT_3D ( 'NONE', #256, #172, #108 ) ;
#268 = CARTESIAN_POINT ( 'NONE',  ( -71.50000000000000000, 5.000000000000001776, 0.000000000000000000 ) ) ;
#269 = ORIENTED_EDGE ( 'NONE', *, *, #271, .F. ) ;
#270 = DIRECTION ( 'NONE',  ( -1.000000000000000000, 2.449293598294705305E-17, 0.000000000000000000 ) ) ;
#271 = EDGE_CURVE ( 'NONE', #158, #182, #231, .T. ) ;
#272 =( GEOMETRIC_REPRESENTATION_CONTEXT ( 3 ) GLOBAL_UNCERTAINTY_ASSIGNED_CONTEXT ( ( #97 ) ) GLOBAL_UNIT_ASSIGNED_CONTEXT ( ( #127, #3, #60 ) ) REPRESENTATION_CONTEXT ( 'NONE', 'WORKASPACE' ) );
#273 = EDGE_LOOP ( 'NONE', ( #187, #145, #136, #66 ) ) ;
#274 = ORIENTED_EDGE ( 'NONE', *, *, #70, .T. ) ;
#275 = FACE_OUTER_BOUND ( 'NONE', #45, .T. ) ;
ENDSEC;
END-ISO-10303-21;
