ISO-10303-21;
HEADER;
FILE_DESCRIPTION (( 'STEP AP203' ),
    '1' );
FILE_NAME ('DP22411_WI064.step',
    '2021-11-05T14:45:19',
    ( '' ),
    ( '' ),
    'SwSTEP 2.0',
    'SolidWorks 2021',
    '' );
FILE_SCHEMA (( 'CONFIG_CONTROL_DESIGN' ));
ENDSEC;

DATA;
#1 = PERSON_AND_ORGANIZATION ( #185, #95 ) ;
#2 = VERTEX_POINT ( 'NONE', #118 ) ;
#3 = PERSON_AND_ORGANIZATION_ROLE ( 'design_supplier' ) ;
#4 = AXIS2_PLACEMENT_3D ( 'NONE', #220, #218, #14 ) ;
#5 = MANIFOLD_SOLID_BREP ( 'Rivoluzione1', #207 ) ;
#6 = EDGE_CURVE ( 'NONE', #150, #50, #161, .T. ) ;
#7 = APPROVAL_STATUS ( 'not_yet_approved' ) ;
#8 = VERTEX_POINT ( 'NONE', #217 ) ;
#9 = EDGE_CURVE ( 'NONE', #150, #255, #52, .T. ) ;
#10 = ORIENTED_EDGE ( 'NONE', *, *, #6, .T. ) ;
#11 = AXIS2_PLACEMENT_3D ( 'NONE', #125, #147, #225 ) ;
#12 = EDGE_CURVE ( 'NONE', #178, #2, #68, .T. ) ;
#13 = DIRECTION ( 'NONE',  ( -0.7071067811865453523, -0.7071067811865496822, 8.659560562354904508E-17 ) ) ;
#14 = DIRECTION ( 'NONE',  ( -1.000000000000000000, 1.224646799147352961E-16, 0.000000000000000000 ) ) ;
#15 = CARTESIAN_POINT ( 'NONE',  ( 3.429011037612573499E-16, 2.799999999999987832, 0.000000000000000000 ) ) ;
#16 = FACE_OUTER_BOUND ( 'NONE', #266, .T. ) ;
#17 = APPLICATION_PROTOCOL_DEFINITION ( 'international standard', 'config_control_design', 1994, #108 ) ;
#18 = CARTESIAN_POINT ( 'NONE',  ( -49.80000000000000426, 2.999999999999993783, 6.110987527745293517E-15 ) ) ;
#19 = EDGE_CURVE ( 'NONE', #255, #2, #101, .T. ) ;
#20 = COORDINATED_UNIVERSAL_TIME_OFFSET ( 1, 0, .AHEAD. ) ;
#21 = ADVANCED_FACE ( 'NONE', ( #182 ), #71, .T. ) ;
#22 = CALENDAR_DATE ( 2021, 5, 11 ) ;
#23 = EDGE_LOOP ( 'NONE', ( #152, #117, #82, #106 ) ) ;
#24 = DATE_TIME_ROLE ( 'creation_date' ) ;
#25 = CALENDAR_DATE ( 2021, 5, 11 ) ;
#26 = AXIS2_PLACEMENT_3D ( 'NONE', #167, #272, #81 ) ;
#27 = CONICAL_SURFACE ( 'NONE', #180, 49.80000000000000426, 0.7853981633974450594 ) ;
#28 = EDGE_LOOP ( 'NONE', ( #42, #193, #198, #238 ) ) ;
#29 = CARTESIAN_POINT ( 'NONE',  ( 50.00000000000000000, 0.1999999999999818312, 6.123233995736766085E-15 ) ) ;
#30 = CC_DESIGN_PERSON_AND_ORGANIZATION_ASSIGNMENT ( #236, #211, ( #47 ) ) ;
#31 = CONICAL_SURFACE ( 'NONE', #41, 49.80000000000000426, 0.7853981633974450594 ) ;
#32 = LINE ( 'NONE', #93, #70 ) ;
#33 = ORIENTED_EDGE ( 'NONE', *, *, #107, .T. ) ;
#34 = DIRECTION ( 'NONE',  ( 1.224646799147352961E-16, 1.000000000000000000, -0.000000000000000000 ) ) ;
#35 = DIRECTION ( 'NONE',  ( -1.224646799147352961E-16, -1.000000000000000000, 0.000000000000000000 ) ) ;
#36 = PERSON_AND_ORGANIZATION ( #185, #95 ) ;
#37 = CC_DESIGN_PERSON_AND_ORGANIZATION_ASSIGNMENT ( #197, #62, ( #265 ) ) ;
#38 = CARTESIAN_POINT ( 'NONE',  ( 49.80000000000000426, 2.999999999999981792, 0.000000000000000000 ) ) ;
#39 = FACE_OUTER_BOUND ( 'NONE', #115, .T. ) ;
#40 = ADVANCED_FACE ( 'NONE', ( #240 ), #86, .T. ) ;
#41 = AXIS2_PLACEMENT_3D ( 'NONE', #146, #224, #275 ) ;
#42 = ORIENTED_EDGE ( 'NONE', *, *, #103, .F. ) ;
#43 = CC_DESIGN_APPROVAL ( #85, ( #47 ) ) ;
#44 = VECTOR ( 'NONE', #13, 1000.000000000000000 ) ;
#45 = ORIENTED_EDGE ( 'NONE', *, *, #103, .T. ) ;
#46 = CARTESIAN_POINT ( 'NONE',  ( -50.00000000000000000, 3.000000000000006217, 0.000000000000000000 ) ) ;
#47 = PRODUCT_DEFINITION ( 'NON CONOSCIUTO', '', #251, #130 ) ;
#48 = AXIS2_PLACEMENT_3D ( 'NONE', #201, #34, #143 ) ;
#49 = DIRECTION ( 'NONE',  ( 0.7071067811865453523, 0.7071067811865496822, 8.659560562354904508E-17 ) ) ;
#50 = VERTEX_POINT ( 'NONE', #29 ) ;
#51 = EDGE_CURVE ( 'NONE', #8, #135, #242, .T. ) ;
#52 = LINE ( 'NONE', #46, #219 ) ;
#53 = CIRCLE ( 'NONE', #11, 49.80000000000000426 ) ;
#54 = DIRECTION ( 'NONE',  ( 1.224646799147352961E-16, 1.000000000000000000, -0.000000000000000000 ) ) ;
#55 = APPROVAL ( #175, 'NON SPECIFICATO' ) ;
#56 = PLANE ( 'NONE',  #164 ) ;
#57 =( NAMED_UNIT ( * ) PLANE_ANGLE_UNIT ( ) SI_UNIT ( $, .RADIAN. ) );
#58 = DIRECTION ( 'NONE',  ( 1.224646799147352961E-16, 1.000000000000000000, -0.000000000000000000 ) ) ;
#59 = APPROVAL_ROLE ( '' ) ;
#60 = PERSON_AND_ORGANIZATION_ROLE ( 'creator' ) ;
#61 = ORIENTED_EDGE ( 'NONE', *, *, #19, .T. ) ;
#62 = PERSON_AND_ORGANIZATION_ROLE ( 'classification_officer' ) ;
#63 = SHAPE_DEFINITION_REPRESENTATION ( #274, #116 ) ;
#64 = ORIENTED_EDGE ( 'NONE', *, *, #79, .F. ) ;
#65 = LOCAL_TIME ( 15, 45, 19.00000000000000000, #87 ) ;
#66 = DIRECTION ( 'NONE',  ( 1.000000000000000000, -1.219183165847153579E-16, 0.000000000000000000 ) ) ;
#67 = DIRECTION ( 'NONE',  ( 1.224646799147352961E-16, 1.000000000000000000, -0.000000000000000000 ) ) ;
#68 = LINE ( 'NONE', #223, #76 ) ;
#69 =( GEOMETRIC_REPRESENTATION_CONTEXT ( 3 ) GLOBAL_UNCERTAINTY_ASSIGNED_CONTEXT ( ( #136 ) ) GLOBAL_UNIT_ASSIGNED_CONTEXT ( ( #144, #57, #127 ) ) REPRESENTATION_CONTEXT ( 'NONE', 'WORKASPACE' ) );
#70 = VECTOR ( 'NONE', #49, 1000.000000000000000 ) ;
#71 = PLANE ( 'NONE',  #252 ) ;
#72 = ORIENTED_EDGE ( 'NONE', *, *, #237, .T. ) ;
#73 = APPLICATION_PROTOCOL_DEFINITION ( 'international standard', 'config_control_design', 1994, #98 ) ;
#74 = APPROVAL_PERSON_ORGANIZATION ( #77, #85, #59 ) ;
#75 = CARTESIAN_POINT ( 'NONE',  ( 3.673940397442059375E-16, 3.000000000000000000, 0.000000000000000000 ) ) ;
#76 = VECTOR ( 'NONE', #163, 1000.000000000000114 ) ;
#77 = PERSON_AND_ORGANIZATION ( #185, #95 ) ;
#78 = CYLINDRICAL_SURFACE ( 'NONE', #104, 50.00000000000000000 ) ;
#79 = EDGE_CURVE ( 'NONE', #178, #230, #256, .T. ) ;
#80 = APPROVAL_PERSON_ORGANIZATION ( #1, #55, #195 ) ;
#81 = DIRECTION ( 'NONE',  ( -1.000000000000000000, 1.224646799147352961E-16, 0.000000000000000000 ) ) ;
#82 = ORIENTED_EDGE ( 'NONE', *, *, #9, .T. ) ;
#83 = AXIS2_PLACEMENT_3D ( 'NONE', #248, #269, #249 ) ;
#84 = SECURITY_CLASSIFICATION_LEVEL ( 'unclassified' ) ;
#85 = APPROVAL ( #260, 'NON SPECIFICATO' ) ;
#86 = CONICAL_SURFACE ( 'NONE', #171, 50.00000000000000000, 0.7853981633974450594 ) ;
#87 = COORDINATED_UNIVERSAL_TIME_OFFSET ( 1, 0, .AHEAD. ) ;
#88 = ORIENTED_EDGE ( 'NONE', *, *, #181, .T. ) ;
#89 = EDGE_CURVE ( 'NONE', #2, #255, #196, .T. ) ;
#90 = CARTESIAN_POINT ( 'NONE',  ( 49.80000000000000426, -1.824180539159146824E-14, 6.110987527745293517E-15 ) ) ;
#91 = AXIS2_PLACEMENT_3D ( 'NONE', #227, #189, #170 ) ;
#92 = DIRECTION ( 'NONE',  ( -1.000000000000000000, 1.214306433183764966E-16, 0.000000000000000000 ) ) ;
#93 = CARTESIAN_POINT ( 'NONE',  ( 50.00000000000000000, 0.1999999999999818312, 6.123233995736766085E-15 ) ) ;
#94 = DIRECTION ( 'NONE',  ( 1.224646799147352961E-16, 1.000000000000000000, -0.000000000000000000 ) ) ;
#95 = ORGANIZATION ( 'NON SPECIFICATO', 'NON SPECIFICATO', '' ) ;
#96 = CARTESIAN_POINT ( 'NONE',  ( -7.468803717656049792E-31, -6.098741059753819371E-15, 0.000000000000000000 ) ) ;
#97 = LINE ( 'NONE', #126, #226 ) ;
#98 = APPLICATION_CONTEXT ( 'configuration controlled 3d designs of mechanical parts and assemblies' ) ;
#99 = PRODUCT_RELATED_PRODUCT_CATEGORY ( 'detail', '', ( #112 ) ) ;
#100 = PERSON_AND_ORGANIZATION_ROLE ( 'design_owner' ) ;
#101 = CIRCLE ( 'NONE', #129, 50.00000000000000000 ) ;
#102 = DIRECTION ( 'NONE',  ( 1.224646799147352961E-16, 1.000000000000000000, -0.000000000000000000 ) ) ;
#103 = EDGE_CURVE ( 'NONE', #135, #50, #32, .T. ) ;
#104 = AXIS2_PLACEMENT_3D ( 'NONE', #75, #54, #166 ) ;
#105 = PERSON_AND_ORGANIZATION ( #185, #95 ) ;
#106 = ORIENTED_EDGE ( 'NONE', *, *, #89, .F. ) ;
#107 = EDGE_CURVE ( 'NONE', #230, #255, #200, .T. ) ;
#108 = APPLICATION_CONTEXT ( 'configuration controlled 3d designs of mechanical parts and assemblies' ) ;
#109 = COORDINATED_UNIVERSAL_TIME_OFFSET ( 1, 0, .AHEAD. ) ;
#110 = EDGE_LOOP ( 'NONE', ( #158, #45, #174, #239 ) ) ;
#111 = CC_DESIGN_APPROVAL ( #206, ( #251 ) ) ;
#112 = PRODUCT ( 'DP22411_WI064', 'DP22411_WI064', '', ( #124 ) ) ;
#113 = COORDINATED_UNIVERSAL_TIME_OFFSET ( 1, 0, .AHEAD. ) ;
#114 = APPROVAL_DATE_TIME ( #148, #206 ) ;
#115 = EDGE_LOOP ( 'NONE', ( #212, #64, #173, #259 ) ) ;
#116 = ADVANCED_BREP_SHAPE_REPRESENTATION ( 'DP22411_WI064', ( #5, #83 ), #69 ) ;
#117 = ORIENTED_EDGE ( 'NONE', *, *, #268, .T. ) ;
#118 = CARTESIAN_POINT ( 'NONE',  ( 50.00000000000000000, 2.799999999999981615, 0.000000000000000000 ) ) ;
#119 = APPROVAL_PERSON_ORGANIZATION ( #151, #206, #257 ) ;
#120 = CARTESIAN_POINT ( 'NONE',  ( 3.673940397442044091E-16, 2.999999999999988010, 0.000000000000000000 ) ) ;
#121 = FACE_OUTER_BOUND ( 'NONE', #154, .T. ) ;
#122 = CC_DESIGN_SECURITY_CLASSIFICATION ( #265, ( #251 ) ) ;
#123 = DIRECTION ( 'NONE',  ( 1.224646799147352961E-16, 1.000000000000000000, -0.000000000000000000 ) ) ;
#124 = MECHANICAL_CONTEXT ( 'NONE', #98, 'mechanical' ) ;
#125 = CARTESIAN_POINT ( 'NONE',  ( 3.673940397442044091E-16, 2.999999999999988010, 0.000000000000000000 ) ) ;
#126 = CARTESIAN_POINT ( 'NONE',  ( 50.00000000000000000, 2.999999999999993783, 6.123233995736766085E-15 ) ) ;
#127 =( NAMED_UNIT ( * ) SI_UNIT ( $, .STERADIAN. ) SOLID_ANGLE_UNIT ( ) );
#128 = DATE_AND_TIME ( #25, #156 ) ;
#129 = AXIS2_PLACEMENT_3D ( 'NONE', #162, #141, #92 ) ;
#130 = DESIGN_CONTEXT ( 'detailed design', #108, 'design' ) ;
#131 = DATE_AND_TIME ( #258, #159 ) ;
#132 = ORIENTED_EDGE ( 'NONE', *, *, #9, .F. ) ;
#133 = LOCAL_TIME ( 15, 45, 19.00000000000000000, #234 ) ;
#134 = DATE_TIME_ROLE ( 'classification_date' ) ;
#135 = VERTEX_POINT ( 'NONE', #90 ) ;
#136 = UNCERTAINTY_MEASURE_WITH_UNIT (LENGTH_MEASURE( 1.000000000000000082E-05 ), #144, 'distance_accuracy_value', 'NONE');
#137 = ORIENTED_EDGE ( 'NONE', *, *, #12, .F. ) ;
#138 = ORIENTED_EDGE ( 'NONE', *, *, #19, .F. ) ;
#139 = CARTESIAN_POINT ( 'NONE',  ( 2.449293598294558626E-17, 0.1999999999999879374, 0.000000000000000000 ) ) ;
#140 = AXIS2_PLACEMENT_3D ( 'NONE', #183, #94, #184 ) ;
#141 = DIRECTION ( 'NONE',  ( 1.224646799147352961E-16, 1.000000000000000000, -0.000000000000000000 ) ) ;
#142 = CARTESIAN_POINT ( 'NONE',  ( -49.80000000000000426, 2.999999999999993783, 6.098741059753820160E-15 ) ) ;
#143 = DIRECTION ( 'NONE',  ( -1.000000000000000000, 1.225148454908620010E-16, 0.000000000000000000 ) ) ;
#144 =( LENGTH_UNIT ( ) NAMED_UNIT ( * ) SI_UNIT ( .MILLI., .METRE. ) );
#145 = ADVANCED_FACE ( 'NONE', ( #121 ), #27, .T. ) ;
#146 = CARTESIAN_POINT ( 'NONE',  ( 3.673940397442044091E-16, 2.999999999999988010, 0.000000000000000000 ) ) ;
#147 = DIRECTION ( 'NONE',  ( 1.224646799147352961E-16, 1.000000000000000000, -0.000000000000000000 ) ) ;
#148 = DATE_AND_TIME ( #213, #203 ) ;
#149 = CC_DESIGN_PERSON_AND_ORGANIZATION_ASSIGNMENT ( #36, #100, ( #112 ) ) ;
#150 = VERTEX_POINT ( 'NONE', #157 ) ;
#151 = PERSON_AND_ORGANIZATION ( #185, #95 ) ;
#152 = ORIENTED_EDGE ( 'NONE', *, *, #237, .F. ) ;
#153 = APPROVAL_DATE_TIME ( #131, #85 ) ;
#154 = EDGE_LOOP ( 'NONE', ( #199, #33, #61, #137 ) ) ;
#155 = EDGE_LOOP ( 'NONE', ( #10, #72, #138, #132 ) ) ;
#156 = LOCAL_TIME ( 15, 45, 19.00000000000000000, #20 ) ;
#157 = CARTESIAN_POINT ( 'NONE',  ( -50.00000000000000000, 0.1999999999999940714, 0.000000000000000000 ) ) ;
#158 = ORIENTED_EDGE ( 'NONE', *, *, #51, .T. ) ;
#159 = LOCAL_TIME ( 15, 45, 19.00000000000000000, #109 ) ;
#160 = FACE_OUTER_BOUND ( 'NONE', #28, .T. ) ;
#161 = CIRCLE ( 'NONE', #48, 50.00000000000000000 ) ;
#162 = CARTESIAN_POINT ( 'NONE',  ( 3.429011037612573499E-16, 2.799999999999987832, 0.000000000000000000 ) ) ;
#163 = DIRECTION ( 'NONE',  ( 0.7071067811865451302, -0.7071067811865499042, 0.000000000000000000 ) ) ;
#164 = AXIS2_PLACEMENT_3D ( 'NONE', #190, #102, #191 ) ;
#165 = AXIS2_PLACEMENT_3D ( 'NONE', #15, #241, #244 ) ;
#166 = DIRECTION ( 'NONE',  ( -1.000000000000000000, 1.214306433183764966E-16, 0.000000000000000000 ) ) ;
#167 = CARTESIAN_POINT ( 'NONE',  ( -1.444447458290426890E-30, -1.214306433183764966E-14, 0.000000000000000000 ) ) ;
#168 = CARTESIAN_POINT ( 'NONE',  ( -50.00000000000000000, 2.799999999999994049, 6.123233995736766085E-15 ) ) ;
#169 = CC_DESIGN_APPROVAL ( #55, ( #265 ) ) ;
#170 = DIRECTION ( 'NONE',  ( -1.000000000000000000, 1.225148454908620010E-16, 0.000000000000000000 ) ) ;
#171 = AXIS2_PLACEMENT_3D ( 'NONE', #139, #123, #264 ) ;
#172 = ADVANCED_FACE ( 'NONE', ( #160 ), #271, .T. ) ;
#173 = ORIENTED_EDGE ( 'NONE', *, *, #12, .T. ) ;
#174 = ORIENTED_EDGE ( 'NONE', *, *, #6, .F. ) ;
#175 = APPROVAL_STATUS ( 'not_yet_approved' ) ;
#176 = ADVANCED_FACE ( 'NONE', ( #204 ), #267, .T. ) ;
#177 = DATE_AND_TIME ( #22, #65 ) ;
#178 = VERTEX_POINT ( 'NONE', #38 ) ;
#179 = DIRECTION ( 'NONE',  ( -1.000000000000000000, 1.219183165847153579E-16, 0.000000000000000000 ) ) ;
#180 = AXIS2_PLACEMENT_3D ( 'NONE', #120, #261, #66 ) ;
#181 = EDGE_CURVE ( 'NONE', #230, #178, #53, .T. ) ;
#182 = FACE_OUTER_BOUND ( 'NONE', #202, .T. ) ;
#183 = CARTESIAN_POINT ( 'NONE',  ( 2.449293598294558626E-17, 0.1999999999999879374, 0.000000000000000000 ) ) ;
#184 = DIRECTION ( 'NONE',  ( -1.000000000000000000, 1.225148454908620010E-16, 0.000000000000000000 ) ) ;
#185 = PERSON ( 'NON SPECIFICATO', 'NON SPECIFICATO', 'NON SPECIFICATO', ('NON SPECIFICATO'), ('NON SPECIFICATO'), ('NON SPECIFICATO') ) ;
#186 = CARTESIAN_POINT ( 'NONE',  ( 3.673940397442044091E-16, 2.999999999999988010, 0.000000000000000000 ) ) ;
#187 = CC_DESIGN_PERSON_AND_ORGANIZATION_ASSIGNMENT ( #105, #3, ( #251 ) ) ;
#188 = DIRECTION ( 'NONE',  ( -1.000000000000000000, 1.214306433183764966E-16, 0.000000000000000000 ) ) ;
#189 = DIRECTION ( 'NONE',  ( 1.224646799147352961E-16, 1.000000000000000000, -0.000000000000000000 ) ) ;
#190 = CARTESIAN_POINT ( 'NONE',  ( 3.673940397442051979E-16, 2.999999999999993783, 0.000000000000000000 ) ) ;
#191 = DIRECTION ( 'NONE',  ( -1.000000000000000000, 1.224646799147352961E-16, 0.000000000000000000 ) ) ;
#192 = CALENDAR_DATE ( 2021, 5, 11 ) ;
#193 = ORIENTED_EDGE ( 'NONE', *, *, #243, .T. ) ;
#194 = CC_DESIGN_PERSON_AND_ORGANIZATION_ASSIGNMENT ( #254, #60, ( #251 ) ) ;
#195 = APPROVAL_ROLE ( '' ) ;
#196 = CIRCLE ( 'NONE', #165, 50.00000000000000000 ) ;
#197 = PERSON_AND_ORGANIZATION ( #185, #95 ) ;
#198 = ORIENTED_EDGE ( 'NONE', *, *, #250, .T. ) ;
#199 = ORIENTED_EDGE ( 'NONE', *, *, #181, .F. ) ;
#200 = LINE ( 'NONE', #142, #44 ) ;
#201 = CARTESIAN_POINT ( 'NONE',  ( 2.449293598294558626E-17, 0.1999999999999879374, 0.000000000000000000 ) ) ;
#202 = EDGE_LOOP ( 'NONE', ( #221, #215 ) ) ;
#203 = LOCAL_TIME ( 15, 45, 19.00000000000000000, #113 ) ;
#204 = FACE_OUTER_BOUND ( 'NONE', #23, .T. ) ;
#205 = DIRECTION ( 'NONE',  ( 1.224646799147352961E-16, 1.000000000000000000, -0.000000000000000000 ) ) ;
#206 = APPROVAL ( #7, 'NON SPECIFICATO' ) ;
#207 = CLOSED_SHELL ( 'NONE', ( #40, #273, #145, #233, #216, #176, #172, #21 ) ) ;
#208 = FACE_OUTER_BOUND ( 'NONE', #155, .T. ) ;
#209 = DIRECTION ( 'NONE',  ( 1.224646799147352961E-16, 1.000000000000000000, -0.000000000000000000 ) ) ;
#210 = AXIS2_PLACEMENT_3D ( 'NONE', #245, #58, #188 ) ;
#211 = PERSON_AND_ORGANIZATION_ROLE ( 'creator' ) ;
#212 = ORIENTED_EDGE ( 'NONE', *, *, #107, .F. ) ;
#213 = CALENDAR_DATE ( 2021, 5, 11 ) ;
#214 = DATE_AND_TIME ( #192, #133 ) ;
#215 = ORIENTED_EDGE ( 'NONE', *, *, #243, .F. ) ;
#216 = ADVANCED_FACE ( 'NONE', ( #39 ), #31, .T. ) ;
#217 = CARTESIAN_POINT ( 'NONE',  ( -49.80000000000000426, -6.044323272083831079E-15, 0.000000000000000000 ) ) ;
#218 = DIRECTION ( 'NONE',  ( 1.224646799147352961E-16, 1.000000000000000000, -0.000000000000000000 ) ) ;
#219 = VECTOR ( 'NONE', #67, 1000.000000000000000 ) ;
#220 = CARTESIAN_POINT ( 'NONE',  ( -1.444447458290426890E-30, -1.214306433183764966E-14, 0.000000000000000000 ) ) ;
#221 = ORIENTED_EDGE ( 'NONE', *, *, #51, .F. ) ;
#222 = CIRCLE ( 'NONE', #26, 49.80000000000000426 ) ;
#223 = CARTESIAN_POINT ( 'NONE',  ( 49.80000000000000426, 2.999999999999981792, 0.000000000000000000 ) ) ;
#224 = DIRECTION ( 'NONE',  ( -1.224646799147352961E-16, -1.000000000000000000, 0.000000000000000000 ) ) ;
#225 = DIRECTION ( 'NONE',  ( -1.000000000000000000, 1.219183165847153579E-16, 0.000000000000000000 ) ) ;
#226 = VECTOR ( 'NONE', #209, 1000.000000000000000 ) ;
#227 = CARTESIAN_POINT ( 'NONE',  ( 2.449293598294558626E-17, 0.1999999999999879374, 0.000000000000000000 ) ) ;
#228 = CC_DESIGN_DATE_AND_TIME_ASSIGNMENT ( #214, #24, ( #47 ) ) ;
#229 = APPROVAL_DATE_TIME ( #177, #55 ) ;
#230 = VERTEX_POINT ( 'NONE', #18 ) ;
#231 = VECTOR ( 'NONE', #270, 1000.000000000000114 ) ;
#232 = AXIS2_PLACEMENT_3D ( 'NONE', #186, #205, #179 ) ;
#233 = ADVANCED_FACE ( 'NONE', ( #16 ), #56, .T. ) ;
#234 = COORDINATED_UNIVERSAL_TIME_OFFSET ( 1, 0, .AHEAD. ) ;
#235 = ORIENTED_EDGE ( 'NONE', *, *, #79, .T. ) ;
#236 = PERSON_AND_ORGANIZATION ( #185, #95 ) ;
#237 = EDGE_CURVE ( 'NONE', #50, #2, #97, .T. ) ;
#238 = ORIENTED_EDGE ( 'NONE', *, *, #268, .F. ) ;
#239 = ORIENTED_EDGE ( 'NONE', *, *, #250, .F. ) ;
#240 = FACE_OUTER_BOUND ( 'NONE', #110, .T. ) ;
#241 = DIRECTION ( 'NONE',  ( 1.224646799147352961E-16, 1.000000000000000000, -0.000000000000000000 ) ) ;
#242 = CIRCLE ( 'NONE', #4, 49.80000000000000426 ) ;
#243 = EDGE_CURVE ( 'NONE', #135, #8, #222, .T. ) ;
#244 = DIRECTION ( 'NONE',  ( -1.000000000000000000, 1.214306433183764966E-16, 0.000000000000000000 ) ) ;
#245 = CARTESIAN_POINT ( 'NONE',  ( 3.673940397442059375E-16, 3.000000000000000000, 0.000000000000000000 ) ) ;
#246 = CIRCLE ( 'NONE', #91, 50.00000000000000000 ) ;
#247 = CARTESIAN_POINT ( 'NONE',  ( -50.00000000000000000, 0.1999999999999940714, 0.000000000000000000 ) ) ;
#248 = CARTESIAN_POINT ( 'NONE',  ( 0.000000000000000000, 0.000000000000000000, 0.000000000000000000 ) ) ;
#249 = DIRECTION ( 'NONE',  ( 1.000000000000000000, 0.000000000000000000, 0.000000000000000000 ) ) ;
#250 = EDGE_CURVE ( 'NONE', #8, #150, #253, .T. ) ;
#251 = PRODUCT_DEFINITION_FORMATION_WITH_SPECIFIED_SOURCE ( 'TUTTO', '', #112, .NOT_KNOWN. ) ;
#252 = AXIS2_PLACEMENT_3D ( 'NONE', #96, #35, #262 ) ;
#253 = LINE ( 'NONE', #247, #231 ) ;
#254 = PERSON_AND_ORGANIZATION ( #185, #95 ) ;
#255 = VERTEX_POINT ( 'NONE', #168 ) ;
#256 = CIRCLE ( 'NONE', #232, 49.80000000000000426 ) ;
#257 = APPROVAL_ROLE ( '' ) ;
#258 = CALENDAR_DATE ( 2021, 5, 11 ) ;
#259 = ORIENTED_EDGE ( 'NONE', *, *, #89, .T. ) ;
#260 = APPROVAL_STATUS ( 'not_yet_approved' ) ;
#261 = DIRECTION ( 'NONE',  ( -1.224646799147352961E-16, -1.000000000000000000, 0.000000000000000000 ) ) ;
#262 = DIRECTION ( 'NONE',  ( 1.000000000000000000, -1.224646799147352961E-16, 0.000000000000000000 ) ) ;
#263 = CC_DESIGN_DATE_AND_TIME_ASSIGNMENT ( #128, #134, ( #265 ) ) ;
#264 = DIRECTION ( 'NONE',  ( -1.000000000000000000, 1.225148454908620010E-16, 0.000000000000000000 ) ) ;
#265 = SECURITY_CLASSIFICATION ( '', '', #84 ) ;
#266 = EDGE_LOOP ( 'NONE', ( #235, #88 ) ) ;
#267 = CYLINDRICAL_SURFACE ( 'NONE', #210, 50.00000000000000000 ) ;
#268 = EDGE_CURVE ( 'NONE', #50, #150, #246, .T. ) ;
#269 = DIRECTION ( 'NONE',  ( 0.000000000000000000, 0.000000000000000000, 1.000000000000000000 ) ) ;
#270 = DIRECTION ( 'NONE',  ( -0.7071067811865451302, 0.7071067811865499042, 0.000000000000000000 ) ) ;
#271 = CONICAL_SURFACE ( 'NONE', #140, 50.00000000000000000, 0.7853981633974450594 ) ;
#272 = DIRECTION ( 'NONE',  ( 1.224646799147352961E-16, 1.000000000000000000, -0.000000000000000000 ) ) ;
#273 = ADVANCED_FACE ( 'NONE', ( #208 ), #78, .T. ) ;
#274 = PRODUCT_DEFINITION_SHAPE ( 'NONE', 'NONE',  #47 ) ;
#275 = DIRECTION ( 'NONE',  ( 1.000000000000000000, -1.219183165847153579E-16, 0.000000000000000000 ) ) ;
ENDSEC;
END-ISO-10303-21;
