ISO-10303-21;
HEADER;
FILE_DESCRIPTION (( 'STEP AP203' ),
    '1' );
FILE_NAME ('DP22410_WI056.step',
    '2021-11-05T14:42:01',
    ( '' ),
    ( '' ),
    'SwSTEP 2.0',
    'SolidWorks 2021',
    '' );
FILE_SCHEMA (( 'CONFIG_CONTROL_DESIGN' ));
ENDSEC;

DATA;
#1 = PERSON_AND_ORGANIZATION_ROLE ( 'classification_officer' ) ;
#2 = ADVANCED_FACE ( 'NONE', ( #177 ), #134, .T. ) ;
#3 = SECURITY_CLASSIFICATION_LEVEL ( 'unclassified' ) ;
#4 = DIRECTION ( 'NONE',  ( -1.000000000000000000, 1.198615467069401673E-16, 0.000000000000000000 ) ) ;
#5 = AXIS2_PLACEMENT_3D ( 'NONE', #50, #9, #4 ) ;
#6 = VECTOR ( 'NONE', #172, 1000.000000000000000 ) ;
#7 = DIRECTION ( 'NONE',  ( -1.000000000000000000, 1.198615467069401673E-16, 0.000000000000000000 ) ) ;
#8 = ORIENTED_EDGE ( 'NONE', *, *, #112, .F. ) ;
#9 = DIRECTION ( 'NONE',  ( 1.224646799147352961E-16, 1.000000000000000000, -0.000000000000000000 ) ) ;
#10 = ORIENTED_EDGE ( 'NONE', *, *, #168, .F. ) ;
#11 = CONICAL_SURFACE ( 'NONE', #83, 39.80000000000000426, 0.7853981633974461696 ) ;
#12 = SECURITY_CLASSIFICATION ( '', '', #3 ) ;
#13 = CARTESIAN_POINT ( 'NONE',  ( 3.429011037612576950E-16, 2.799999999999990496, 0.000000000000000000 ) ) ;
#14 = DIRECTION ( 'NONE',  ( 1.224646799147352961E-16, 1.000000000000000000, -0.000000000000000000 ) ) ;
#15 = EDGE_CURVE ( 'NONE', #25, #113, #156, .T. ) ;
#16 = CC_DESIGN_PERSON_AND_ORGANIZATION_ASSIGNMENT ( #43, #151, ( #213 ) ) ;
#17 = LINE ( 'NONE', #249, #35 ) ;
#18 = CARTESIAN_POINT ( 'NONE',  ( 3.673940397442052966E-16, 2.999999999999994671, 0.000000000000000000 ) ) ;
#19 = FACE_OUTER_BOUND ( 'NONE', #88, .T. ) ;
#20 = AXIS2_PLACEMENT_3D ( 'NONE', #228, #267, #163 ) ;
#21 = PERSON_AND_ORGANIZATION_ROLE ( 'creator' ) ;
#22 = EDGE_CURVE ( 'NONE', #113, #25, #225, .T. ) ;
#23 = CARTESIAN_POINT ( 'NONE',  ( 2.449293598294592214E-17, 0.1999999999999905465, 0.000000000000000000 ) ) ;
#24 = DATE_AND_TIME ( #40, #153 ) ;
#25 = VERTEX_POINT ( 'NONE', #173 ) ;
#26 = VECTOR ( 'NONE', #144, 1000.000000000000000 ) ;
#27 = ORIENTED_EDGE ( 'NONE', *, *, #121, .F. ) ;
#28 = ORIENTED_EDGE ( 'NONE', *, *, #171, .T. ) ;
#29 = CC_DESIGN_PERSON_AND_ORGANIZATION_ASSIGNMENT ( #190, #1, ( #12 ) ) ;
#30 = ORIENTED_EDGE ( 'NONE', *, *, #250, .T. ) ;
#31 = PRODUCT_DEFINITION_SHAPE ( 'NONE', 'NONE',  #213 ) ;
#32 = CARTESIAN_POINT ( 'NONE',  ( -39.80000000000000426, -4.666884857265974285E-15, 0.000000000000000000 ) ) ;
#33 = FACE_OUTER_BOUND ( 'NONE', #241, .T. ) ;
#34 = LINE ( 'NONE', #272, #6 ) ;
#35 = VECTOR ( 'NONE', #248, 1000.000000000000000 ) ;
#36 = CONICAL_SURFACE ( 'NONE', #217, 40.00000000000000000, 0.7853981633974450594 ) ;
#37 = APPLICATION_CONTEXT ( 'configuration controlled 3d designs of mechanical parts and assemblies' ) ;
#38 = PLANE ( 'NONE',  #63 ) ;
#39 = DIRECTION ( 'NONE',  ( 1.224646799147352961E-16, 1.000000000000000000, -0.000000000000000000 ) ) ;
#40 = CALENDAR_DATE ( 2021, 5, 11 ) ;
#41 = AXIS2_PLACEMENT_3D ( 'NONE', #91, #219, #265 ) ;
#42 = DATE_TIME_ROLE ( 'classification_date' ) ;
#43 = PERSON_AND_ORGANIZATION ( #99, #68 ) ;
#44 = UNCERTAINTY_MEASURE_WITH_UNIT (LENGTH_MEASURE( 1.000000000000000082E-05 ), #86, 'distance_accuracy_value', 'NONE');
#45 = APPLICATION_PROTOCOL_DEFINITION ( 'international standard', 'config_control_design', 1994, #164 ) ;
#46 = AXIS2_PLACEMENT_3D ( 'NONE', #206, #14, #104 ) ;
#47 = ORIENTED_EDGE ( 'NONE', *, *, #230, .T. ) ;
#48 = ORIENTED_EDGE ( 'NONE', *, *, #51, .F. ) ;
#49 = APPROVAL_ROLE ( '' ) ;
#50 = CARTESIAN_POINT ( 'NONE',  ( 3.673940397442046556E-16, 2.999999999999990230, 0.000000000000000000 ) ) ;
#51 = EDGE_CURVE ( 'NONE', #132, #179, #269, .T. ) ;
#52 = ORIENTED_EDGE ( 'NONE', *, *, #72, .F. ) ;
#53 = ORIENTED_EDGE ( 'NONE', *, *, #22, .T. ) ;
#54 = CARTESIAN_POINT ( 'NONE',  ( 39.80000000000000426, -1.441507337847890296E-14, 4.886340728597939669E-15 ) ) ;
#55 = CC_DESIGN_SECURITY_CLASSIFICATION ( #12, ( #196 ) ) ;
#56 = CARTESIAN_POINT ( 'NONE',  ( -39.80000000000000426, 2.999999999999994671, 4.874094260606466312E-15 ) ) ;
#57 = LINE ( 'NONE', #100, #260 ) ;
#58 = LINE ( 'NONE', #56, #74 ) ;
#59 = AXIS2_PLACEMENT_3D ( 'NONE', #18, #227, #268 ) ;
#60 = APPROVAL ( #194, 'NON SPECIFICATO' ) ;
#61 = DIRECTION ( 'NONE',  ( 1.000000000000000000, -1.224646799147352961E-16, 0.000000000000000000 ) ) ;
#62 = APPROVAL_DATE_TIME ( #256, #103 ) ;
#63 = AXIS2_PLACEMENT_3D ( 'NONE', #125, #119, #61 ) ;
#64 = PERSON_AND_ORGANIZATION_ROLE ( 'design_owner' ) ;
#65 = PRODUCT ( 'DP22410_WI056', 'DP22410_WI056', '', ( #126 ) ) ;
#66 = APPROVAL_ROLE ( '' ) ;
#67 = DIRECTION ( 'NONE',  ( 1.224646799147352961E-16, 1.000000000000000000, -0.000000000000000000 ) ) ;
#68 = ORGANIZATION ( 'NON SPECIFICATO', 'NON SPECIFICATO', '' ) ;
#69 = CC_DESIGN_PERSON_AND_ORGANIZATION_ASSIGNMENT ( #193, #107, ( #196 ) ) ;
#70 = CARTESIAN_POINT ( 'NONE',  ( -1.155557966632341512E-30, -9.540979117872439019E-15, 0.000000000000000000 ) ) ;
#71 = ORIENTED_EDGE ( 'NONE', *, *, #102, .F. ) ;
#72 = EDGE_CURVE ( 'NONE', #203, #77, #236, .T. ) ;
#73 = VERTEX_POINT ( 'NONE', #180 ) ;
#74 = VECTOR ( 'NONE', #122, 1000.000000000000000 ) ;
#75 =( GEOMETRIC_REPRESENTATION_CONTEXT ( 3 ) GLOBAL_UNCERTAINTY_ASSIGNED_CONTEXT ( ( #44 ) ) GLOBAL_UNIT_ASSIGNED_CONTEXT ( ( #86, #128, #108 ) ) REPRESENTATION_CONTEXT ( 'NONE', 'WORKASPACE' ) );
#76 = EDGE_LOOP ( 'NONE', ( #10, #160, #218, #89 ) ) ;
#77 = VERTEX_POINT ( 'NONE', #54 ) ;
#78 = DIRECTION ( 'NONE',  ( 1.224646799147352961E-16, 1.000000000000000000, -0.000000000000000000 ) ) ;
#79 = DIRECTION ( 'NONE',  ( 1.224646799147352961E-16, 1.000000000000000000, -0.000000000000000000 ) ) ;
#80 = AXIS2_PLACEMENT_3D ( 'NONE', #264, #195, #7 ) ;
#81 = DIRECTION ( 'NONE',  ( -1.000000000000000000, 1.226503707624226891E-16, 0.000000000000000000 ) ) ;
#82 = CARTESIAN_POINT ( 'NONE',  ( 2.449293598294592214E-17, 0.1999999999999905465, 0.000000000000000000 ) ) ;
#83 = AXIS2_PLACEMENT_3D ( 'NONE', #234, #271, #97 ) ;
#84 = CARTESIAN_POINT ( 'NONE',  ( 39.80000000000000426, 2.999999999999985345, 0.000000000000000000 ) ) ;
#85 = ADVANCED_BREP_SHAPE_REPRESENTATION ( 'DP22410_WI056', ( #124, #123 ), #75 ) ;
#86 =( LENGTH_UNIT ( ) NAMED_UNIT ( * ) SI_UNIT ( .MILLI., .METRE. ) );
#87 = COORDINATED_UNIVERSAL_TIME_OFFSET ( 1, 0, .AHEAD. ) ;
#88 = EDGE_LOOP ( 'NONE', ( #52, #114 ) ) ;
#89 = ORIENTED_EDGE ( 'NONE', *, *, #191, .T. ) ;
#90 = EDGE_CURVE ( 'NONE', #179, #247, #17, .T. ) ;
#91 = CARTESIAN_POINT ( 'NONE',  ( 3.673940397442046556E-16, 2.999999999999990230, 0.000000000000000000 ) ) ;
#92 = ORIENTED_EDGE ( 'NONE', *, *, #250, .F. ) ;
#93 = AXIS2_PLACEMENT_3D ( 'NONE', #13, #79, #182 ) ;
#94 = COORDINATED_UNIVERSAL_TIME_OFFSET ( 1, 0, .AHEAD. ) ;
#95 = APPROVAL_PERSON_ORGANIZATION ( #175, #60, #49 ) ;
#96 = DIRECTION ( 'NONE',  ( -1.000000000000000000, 1.224646799147352714E-16, 0.000000000000000000 ) ) ;
#97 = DIRECTION ( 'NONE',  ( 1.000000000000000000, -1.198615467069401673E-16, 0.000000000000000000 ) ) ;
#98 = LINE ( 'NONE', #84, #26 ) ;
#99 = PERSON ( 'NON SPECIFICATO', 'NON SPECIFICATO', 'NON SPECIFICATO', ('NON SPECIFICATO'), ('NON SPECIFICATO'), ('NON SPECIFICATO') ) ;
#100 = CARTESIAN_POINT ( 'NONE',  ( -40.00000000000000000, 0.1999999999999954592, 0.000000000000000000 ) ) ;
#101 = CLOSED_SHELL ( 'NONE', ( #242, #129, #2, #141, #199, #222, #220, #178 ) ) ;
#102 = EDGE_CURVE ( 'NONE', #203, #179, #57, .T. ) ;
#103 = APPROVAL ( #110, 'NON SPECIFICATO' ) ;
#104 = DIRECTION ( 'NONE',  ( -1.000000000000000000, 1.192622389734054877E-16, 0.000000000000000000 ) ) ;
#105 = FACE_OUTER_BOUND ( 'NONE', #76, .T. ) ;
#106 = AXIS2_PLACEMENT_3D ( 'NONE', #137, #201, #221 ) ;
#107 = PERSON_AND_ORGANIZATION_ROLE ( 'design_supplier' ) ;
#108 =( NAMED_UNIT ( * ) SI_UNIT ( $, .STERADIAN. ) SOLID_ANGLE_UNIT ( ) );
#109 = CIRCLE ( 'NONE', #93, 40.00000000000000000 ) ;
#110 = APPROVAL_STATUS ( 'not_yet_approved' ) ;
#111 = ORIENTED_EDGE ( 'NONE', *, *, #51, .T. ) ;
#112 = EDGE_CURVE ( 'NONE', #132, #73, #120, .T. ) ;
#113 = VERTEX_POINT ( 'NONE', #147 ) ;
#114 = ORIENTED_EDGE ( 'NONE', *, *, #171, .F. ) ;
#115 = ORIENTED_EDGE ( 'NONE', *, *, #15, .F. ) ;
#116 = LOCAL_TIME ( 15, 42, 1.000000000000000000, #210 ) ;
#117 = AXIS2_PLACEMENT_3D ( 'NONE', #82, #39, #81 ) ;
#118 = ORIENTED_EDGE ( 'NONE', *, *, #90, .F. ) ;
#119 = DIRECTION ( 'NONE',  ( -1.224646799147352961E-16, -1.000000000000000000, 0.000000000000000000 ) ) ;
#120 = LINE ( 'NONE', #209, #211 ) ;
#121 = EDGE_CURVE ( 'NONE', #113, #73, #98, .T. ) ;
#122 = DIRECTION ( 'NONE',  ( -0.7071067811865462405, -0.7071067811865489050, 8.659560562354914369E-17 ) ) ;
#123 = AXIS2_PLACEMENT_3D ( 'NONE', #192, #240, #169 ) ;
#124 = MANIFOLD_SOLID_BREP ( 'Rivoluzione1', #101 ) ;
#125 = CARTESIAN_POINT ( 'NONE',  ( -5.969043934994191747E-31, -4.874094260606465523E-15, 0.000000000000000000 ) ) ;
#126 = MECHANICAL_CONTEXT ( 'NONE', #164, 'mechanical' ) ;
#127 = APPROVAL_DATE_TIME ( #24, #143 ) ;
#128 =( NAMED_UNIT ( * ) PLANE_ANGLE_UNIT ( ) SI_UNIT ( $, .RADIAN. ) );
#129 = ADVANCED_FACE ( 'NONE', ( #233 ), #146, .T. ) ;
#130 = PERSON_AND_ORGANIZATION ( #99, #68 ) ;
#131 = AXIS2_PLACEMENT_3D ( 'NONE', #70, #246, #96 ) ;
#132 = VERTEX_POINT ( 'NONE', #208 ) ;
#133 = ORIENTED_EDGE ( 'NONE', *, *, #102, .T. ) ;
#134 = CONICAL_SURFACE ( 'NONE', #41, 39.80000000000000426, 0.7853981633974461696 ) ;
#135 = AXIS2_PLACEMENT_3D ( 'NONE', #167, #184, #140 ) ;
#136 = SHAPE_DEFINITION_REPRESENTATION ( #31, #85 ) ;
#137 = CARTESIAN_POINT ( 'NONE',  ( 2.449293598294592214E-17, 0.1999999999999905465, 0.000000000000000000 ) ) ;
#138 = EDGE_LOOP ( 'NONE', ( #263, #30, #139, #71 ) ) ;
#139 = ORIENTED_EDGE ( 'NONE', *, *, #252, .F. ) ;
#140 = DIRECTION ( 'NONE',  ( -1.000000000000000000, 1.192622389734054877E-16, 0.000000000000000000 ) ) ;
#141 = ADVANCED_FACE ( 'NONE', ( #33 ), #166, .T. ) ;
#142 = CARTESIAN_POINT ( 'NONE',  ( -1.155557966632341512E-30, -9.540979117872439019E-15, 0.000000000000000000 ) ) ;
#143 = APPROVAL ( #216, 'NON SPECIFICATO' ) ;
#144 = DIRECTION ( 'NONE',  ( 0.7071067811865459074, -0.7071067811865491270, 0.000000000000000000 ) ) ;
#145 = PRODUCT_RELATED_PRODUCT_CATEGORY ( 'detail', '', ( #65 ) ) ;
#146 = CYLINDRICAL_SURFACE ( 'NONE', #135, 40.00000000000000000 ) ;
#147 = CARTESIAN_POINT ( 'NONE',  ( 39.80000000000000426, 2.999999999999985345, 0.000000000000000000 ) ) ;
#148 = APPROVAL_ROLE ( '' ) ;
#149 = CALENDAR_DATE ( 2021, 5, 11 ) ;
#150 = PERSON_AND_ORGANIZATION ( #99, #68 ) ;
#151 = PERSON_AND_ORGANIZATION_ROLE ( 'creator' ) ;
#152 = LOCAL_TIME ( 15, 42, 1.000000000000000000, #87 ) ;
#153 = LOCAL_TIME ( 15, 42, 1.000000000000000000, #235 ) ;
#154 = ORIENTED_EDGE ( 'NONE', *, *, #90, .T. ) ;
#155 = EDGE_LOOP ( 'NONE', ( #8, #111, #154, #158 ) ) ;
#156 = CIRCLE ( 'NONE', #80, 39.80000000000000426 ) ;
#157 = CIRCLE ( 'NONE', #20, 40.00000000000000000 ) ;
#158 = ORIENTED_EDGE ( 'NONE', *, *, #191, .F. ) ;
#159 = CC_DESIGN_DATE_AND_TIME_ASSIGNMENT ( #237, #42, ( #12 ) ) ;
#160 = ORIENTED_EDGE ( 'NONE', *, *, #22, .F. ) ;
#161 = DIRECTION ( 'NONE',  ( -1.000000000000000000, 1.226503707624226891E-16, 0.000000000000000000 ) ) ;
#162 = CIRCLE ( 'NONE', #254, 40.00000000000000000 ) ;
#163 = DIRECTION ( 'NONE',  ( -1.000000000000000000, 1.192622389734054877E-16, 0.000000000000000000 ) ) ;
#164 = APPLICATION_CONTEXT ( 'configuration controlled 3d designs of mechanical parts and assemblies' ) ;
#165 = CARTESIAN_POINT ( 'NONE',  ( 2.449293598294592214E-17, 0.1999999999999905465, 0.000000000000000000 ) ) ;
#166 = PLANE ( 'NONE',  #59 ) ;
#167 = CARTESIAN_POINT ( 'NONE',  ( 3.673940397442059375E-16, 3.000000000000000000, 0.000000000000000000 ) ) ;
#168 = EDGE_CURVE ( 'NONE', #25, #247, #58, .T. ) ;
#169 = DIRECTION ( 'NONE',  ( 1.000000000000000000, 0.000000000000000000, 0.000000000000000000 ) ) ;
#170 = APPLICATION_PROTOCOL_DEFINITION ( 'international standard', 'config_control_design', 1994, #37 ) ;
#171 = EDGE_CURVE ( 'NONE', #77, #203, #231, .T. ) ;
#172 = DIRECTION ( 'NONE',  ( 0.7071067811865453523, 0.7071067811865496822, 8.659560562354904508E-17 ) ) ;
#173 = CARTESIAN_POINT ( 'NONE',  ( -39.80000000000000426, 2.999999999999994671, 4.886340728597939669E-15 ) ) ;
#174 = LOCAL_TIME ( 15, 42, 1.000000000000000000, #94 ) ;
#175 = PERSON_AND_ORGANIZATION ( #99, #68 ) ;
#176 = ORIENTED_EDGE ( 'NONE', *, *, #252, .T. ) ;
#177 = FACE_OUTER_BOUND ( 'NONE', #245, .T. ) ;
#178 = ADVANCED_FACE ( 'NONE', ( #19 ), #38, .T. ) ;
#179 = VERTEX_POINT ( 'NONE', #253 ) ;
#180 = CARTESIAN_POINT ( 'NONE',  ( 40.00000000000000000, 2.799999999999985612, 0.000000000000000000 ) ) ;
#181 = CYLINDRICAL_SURFACE ( 'NONE', #46, 40.00000000000000000 ) ;
#182 = DIRECTION ( 'NONE',  ( -1.000000000000000000, 1.192622389734054877E-16, 0.000000000000000000 ) ) ;
#183 = AXIS2_PLACEMENT_3D ( 'NONE', #142, #255, #229 ) ;
#184 = DIRECTION ( 'NONE',  ( 1.224646799147352961E-16, 1.000000000000000000, -0.000000000000000000 ) ) ;
#185 = DIRECTION ( 'NONE',  ( -0.7071067811865451302, 0.7071067811865499042, 0.000000000000000000 ) ) ;
#186 = DIRECTION ( 'NONE',  ( 1.224646799147352961E-16, 1.000000000000000000, -0.000000000000000000 ) ) ;
#187 = CONICAL_SURFACE ( 'NONE', #117, 40.00000000000000000, 0.7853981633974450594 ) ;
#188 = CALENDAR_DATE ( 2021, 5, 11 ) ;
#189 = LOCAL_TIME ( 15, 42, 1.000000000000000000, #258 ) ;
#190 = PERSON_AND_ORGANIZATION ( #99, #68 ) ;
#191 = EDGE_CURVE ( 'NONE', #73, #247, #109, .T. ) ;
#192 = CARTESIAN_POINT ( 'NONE',  ( 0.000000000000000000, 0.000000000000000000, 0.000000000000000000 ) ) ;
#193 = PERSON_AND_ORGANIZATION ( #99, #68 ) ;
#194 = APPROVAL_STATUS ( 'not_yet_approved' ) ;
#195 = DIRECTION ( 'NONE',  ( 1.224646799147352961E-16, 1.000000000000000000, -0.000000000000000000 ) ) ;
#196 = PRODUCT_DEFINITION_FORMATION_WITH_SPECIFIED_SOURCE ( 'TUTTO', '', #65, .NOT_KNOWN. ) ;
#197 = CALENDAR_DATE ( 2021, 5, 11 ) ;
#198 = ORIENTED_EDGE ( 'NONE', *, *, #168, .T. ) ;
#199 = ADVANCED_FACE ( 'NONE', ( #105 ), #11, .T. ) ;
#200 = CC_DESIGN_PERSON_AND_ORGANIZATION_ASSIGNMENT ( #257, #64, ( #65 ) ) ;
#201 = DIRECTION ( 'NONE',  ( 1.224646799147352961E-16, 1.000000000000000000, -0.000000000000000000 ) ) ;
#202 = DATE_AND_TIME ( #197, #174 ) ;
#203 = VERTEX_POINT ( 'NONE', #32 ) ;
#204 = APPROVAL_PERSON_ORGANIZATION ( #150, #103, #66 ) ;
#205 = FACE_OUTER_BOUND ( 'NONE', #155, .T. ) ;
#206 = CARTESIAN_POINT ( 'NONE',  ( 3.673940397442059375E-16, 3.000000000000000000, 0.000000000000000000 ) ) ;
#207 = FACE_OUTER_BOUND ( 'NONE', #138, .T. ) ;
#208 = CARTESIAN_POINT ( 'NONE',  ( 40.00000000000000000, 0.1999999999999856337, 4.898587196589413026E-15 ) ) ;
#209 = CARTESIAN_POINT ( 'NONE',  ( 40.00000000000000000, 2.999999999999995115, 4.898587196589413026E-15 ) ) ;
#210 = COORDINATED_UNIVERSAL_TIME_OFFSET ( 1, 0, .AHEAD. ) ;
#211 = VECTOR ( 'NONE', #186, 1000.000000000000000 ) ;
#212 = PERSON_AND_ORGANIZATION ( #99, #68 ) ;
#213 = PRODUCT_DEFINITION ( 'NON CONOSCIUTO', '', #196, #215 ) ;
#214 = DIRECTION ( 'NONE',  ( -1.000000000000000000, 1.226503707624226891E-16, 0.000000000000000000 ) ) ;
#215 = DESIGN_CONTEXT ( 'detailed design', #37, 'design' ) ;
#216 = APPROVAL_STATUS ( 'not_yet_approved' ) ;
#217 = AXIS2_PLACEMENT_3D ( 'NONE', #165, #78, #161 ) ;
#218 = ORIENTED_EDGE ( 'NONE', *, *, #121, .T. ) ;
#219 = DIRECTION ( 'NONE',  ( -1.224646799147352961E-16, -1.000000000000000000, 0.000000000000000000 ) ) ;
#220 = ADVANCED_FACE ( 'NONE', ( #273 ), #187, .T. ) ;
#221 = DIRECTION ( 'NONE',  ( -1.000000000000000000, 1.226503707624226891E-16, 0.000000000000000000 ) ) ;
#222 = ADVANCED_FACE ( 'NONE', ( #205 ), #181, .T. ) ;
#223 = EDGE_LOOP ( 'NONE', ( #92, #28, #133, #48 ) ) ;
#224 = EDGE_LOOP ( 'NONE', ( #176, #244, #266, #118 ) ) ;
#225 = CIRCLE ( 'NONE', #5, 39.80000000000000426 ) ;
#226 = CC_DESIGN_APPROVAL ( #60, ( #12 ) ) ;
#227 = DIRECTION ( 'NONE',  ( 1.224646799147352961E-16, 1.000000000000000000, -0.000000000000000000 ) ) ;
#228 = CARTESIAN_POINT ( 'NONE',  ( 3.429011037612576950E-16, 2.799999999999990496, 0.000000000000000000 ) ) ;
#229 = DIRECTION ( 'NONE',  ( -1.000000000000000000, 1.224646799147352714E-16, 0.000000000000000000 ) ) ;
#230 = EDGE_CURVE ( 'NONE', #247, #73, #157, .T. ) ;
#231 = CIRCLE ( 'NONE', #183, 39.80000000000000426 ) ;
#232 = CC_DESIGN_APPROVAL ( #103, ( #213 ) ) ;
#233 = FACE_OUTER_BOUND ( 'NONE', #224, .T. ) ;
#234 = CARTESIAN_POINT ( 'NONE',  ( 3.673940397442046556E-16, 2.999999999999990230, 0.000000000000000000 ) ) ;
#235 = COORDINATED_UNIVERSAL_TIME_OFFSET ( 1, 0, .AHEAD. ) ;
#236 = CIRCLE ( 'NONE', #131, 39.80000000000000426 ) ;
#237 = DATE_AND_TIME ( #149, #152 ) ;
#238 = CALENDAR_DATE ( 2021, 5, 11 ) ;
#239 = DATE_TIME_ROLE ( 'creation_date' ) ;
#240 = DIRECTION ( 'NONE',  ( 0.000000000000000000, 0.000000000000000000, 1.000000000000000000 ) ) ;
#241 = EDGE_LOOP ( 'NONE', ( #53, #261 ) ) ;
#242 = ADVANCED_FACE ( 'NONE', ( #207 ), #36, .T. ) ;
#243 = CC_DESIGN_DATE_AND_TIME_ASSIGNMENT ( #275, #239, ( #213 ) ) ;
#244 = ORIENTED_EDGE ( 'NONE', *, *, #112, .T. ) ;
#245 = EDGE_LOOP ( 'NONE', ( #115, #198, #47, #27 ) ) ;
#246 = DIRECTION ( 'NONE',  ( 1.224646799147352961E-16, 1.000000000000000000, -0.000000000000000000 ) ) ;
#247 = VERTEX_POINT ( 'NONE', #251 ) ;
#248 = DIRECTION ( 'NONE',  ( 1.224646799147352961E-16, 1.000000000000000000, -0.000000000000000000 ) ) ;
#249 = CARTESIAN_POINT ( 'NONE',  ( -40.00000000000000000, 3.000000000000004885, 0.000000000000000000 ) ) ;
#250 = EDGE_CURVE ( 'NONE', #77, #132, #34, .T. ) ;
#251 = CARTESIAN_POINT ( 'NONE',  ( -40.00000000000000000, 2.799999999999995381, 4.898587196589413026E-15 ) ) ;
#252 = EDGE_CURVE ( 'NONE', #179, #132, #162, .T. ) ;
#253 = CARTESIAN_POINT ( 'NONE',  ( -40.00000000000000000, 0.1999999999999954592, 0.000000000000000000 ) ) ;
#254 = AXIS2_PLACEMENT_3D ( 'NONE', #23, #67, #214 ) ;
#255 = DIRECTION ( 'NONE',  ( 1.224646799147352961E-16, 1.000000000000000000, -0.000000000000000000 ) ) ;
#256 = DATE_AND_TIME ( #238, #116 ) ;
#257 = PERSON_AND_ORGANIZATION ( #99, #68 ) ;
#258 = COORDINATED_UNIVERSAL_TIME_OFFSET ( 1, 0, .AHEAD. ) ;
#259 = APPROVAL_PERSON_ORGANIZATION ( #130, #143, #148 ) ;
#260 = VECTOR ( 'NONE', #185, 1000.000000000000114 ) ;
#261 = ORIENTED_EDGE ( 'NONE', *, *, #15, .T. ) ;
#262 = APPROVAL_DATE_TIME ( #202, #60 ) ;
#263 = ORIENTED_EDGE ( 'NONE', *, *, #72, .T. ) ;
#264 = CARTESIAN_POINT ( 'NONE',  ( 3.673940397442046556E-16, 2.999999999999990230, 0.000000000000000000 ) ) ;
#265 = DIRECTION ( 'NONE',  ( 1.000000000000000000, -1.198615467069401673E-16, 0.000000000000000000 ) ) ;
#266 = ORIENTED_EDGE ( 'NONE', *, *, #230, .F. ) ;
#267 = DIRECTION ( 'NONE',  ( 1.224646799147352961E-16, 1.000000000000000000, -0.000000000000000000 ) ) ;
#268 = DIRECTION ( 'NONE',  ( -1.000000000000000000, 1.224646799147352961E-16, 0.000000000000000000 ) ) ;
#269 = CIRCLE ( 'NONE', #106, 40.00000000000000000 ) ;
#270 = CC_DESIGN_PERSON_AND_ORGANIZATION_ASSIGNMENT ( #212, #21, ( #196 ) ) ;
#271 = DIRECTION ( 'NONE',  ( -1.224646799147352961E-16, -1.000000000000000000, 0.000000000000000000 ) ) ;
#272 = CARTESIAN_POINT ( 'NONE',  ( 40.00000000000000000, 0.1999999999999856337, 4.898587196589413026E-15 ) ) ;
#273 = FACE_OUTER_BOUND ( 'NONE', #223, .T. ) ;
#274 = CC_DESIGN_APPROVAL ( #143, ( #196 ) ) ;
#275 = DATE_AND_TIME ( #188, #189 ) ;
ENDSEC;
END-ISO-10303-21;
