ISO-10303-21;
HEADER;
FILE_DESCRIPTION (( 'STEP AP203' ),
    '1' );
FILE_NAME ('DP22409_WI048.step',
    '2021-11-05T14:40:13',
    ( '' ),
    ( '' ),
    'SwSTEP 2.0',
    'SolidWorks 2021',
    '' );
FILE_SCHEMA (( 'CONFIG_CONTROL_DESIGN' ));
ENDSEC;

DATA;
#1 = PERSON_AND_ORGANIZATION_ROLE ( 'design_owner' ) ;
#2 = DIRECTION ( 'NONE',  ( 1.224646799147352961E-16, 1.000000000000000000, -0.000000000000000000 ) ) ;
#3 =( LENGTH_UNIT ( ) NAMED_UNIT ( * ) SI_UNIT ( .MILLI., .METRE. ) );
#4 = APPROVAL ( #113, 'NON SPECIFICATO' ) ;
#5 = LINE ( 'NONE', #197, #8 ) ;
#6 = PERSON_AND_ORGANIZATION_ROLE ( 'design_supplier' ) ;
#7 = LOCAL_TIME ( 15, 40, 13.00000000000000000, #70 ) ;
#8 = VECTOR ( 'NONE', #216, 1000.000000000000000 ) ;
#9 = ORIENTED_EDGE ( 'NONE', *, *, #127, .T. ) ;
#10 = EDGE_LOOP ( 'NONE', ( #203, #28, #131, #25 ) ) ;
#11 = DATE_AND_TIME ( #243, #260 ) ;
#12 = CIRCLE ( 'NONE', #261, 37.50000000000000000 ) ;
#13 = DIRECTION ( 'NONE',  ( -1.224646799147352961E-16, -1.000000000000000000, 0.000000000000000000 ) ) ;
#14 = ADVANCED_FACE ( 'NONE', ( #94 ), #218, .T. ) ;
#15 = DIRECTION ( 'NONE',  ( -1.000000000000000000, 1.221534447667001744E-16, 0.000000000000000000 ) ) ;
#16 = CARTESIAN_POINT ( 'NONE',  ( -37.50000000000000000, 0.1999999999999951261, 0.000000000000000000 ) ) ;
#17 = CARTESIAN_POINT ( 'NONE',  ( 37.50000000000000000, 0.1999999999999859668, 4.592425496802574367E-15 ) ) ;
#18 = PRODUCT_RELATED_PRODUCT_CATEGORY ( 'detail', '', ( #31 ) ) ;
#19 = CARTESIAN_POINT ( 'NONE',  ( 2.449293598294592214E-17, 0.1999999999999905465, 0.000000000000000000 ) ) ;
#20 = AXIS2_PLACEMENT_3D ( 'NONE', #148, #104, #43 ) ;
#21 = AXIS2_PLACEMENT_3D ( 'NONE', #122, #206, #145 ) ;
#22 = ADVANCED_FACE ( 'NONE', ( #119 ), #66, .T. ) ;
#23 = PERSON_AND_ORGANIZATION ( #201, #238 ) ;
#24 = APPLICATION_PROTOCOL_DEFINITION ( 'international standard', 'config_control_design', 1994, #167 ) ;
#25 = ORIENTED_EDGE ( 'NONE', *, *, #150, .F. ) ;
#26 = SHAPE_DEFINITION_REPRESENTATION ( #140, #154 ) ;
#27 = DATE_AND_TIME ( #264, #152 ) ;
#28 = ORIENTED_EDGE ( 'NONE', *, *, #172, .T. ) ;
#29 = EDGE_CURVE ( 'NONE', #222, #224, #142, .T. ) ;
#30 = APPROVAL_STATUS ( 'not_yet_approved' ) ;
#31 = PRODUCT ( 'DP22409_WI048', 'DP22409_WI048', '', ( #193 ) ) ;
#32 = PRODUCT_DEFINITION_FORMATION_WITH_SPECIFIED_SOURCE ( 'TUTTO', '', #31, .NOT_KNOWN. ) ;
#33 = PERSON_AND_ORGANIZATION ( #201, #238 ) ;
#34 = EDGE_LOOP ( 'NONE', ( #220, #272, #180, #199 ) ) ;
#35 = CYLINDRICAL_SURFACE ( 'NONE', #225, 37.50000000000000000 ) ;
#36 = DIRECTION ( 'NONE',  ( -1.000000000000000000, 1.221534447667001744E-16, 0.000000000000000000 ) ) ;
#37 = DESIGN_CONTEXT ( 'detailed design', #270, 'design' ) ;
#38 = CARTESIAN_POINT ( 'NONE',  ( -1.155557966632341512E-30, -9.540979117872439019E-15, 0.000000000000000000 ) ) ;
#39 = DIRECTION ( 'NONE',  ( 1.224646799147352961E-16, 1.000000000000000000, -0.000000000000000000 ) ) ;
#40 = ADVANCED_FACE ( 'NONE', ( #171 ), #54, .T. ) ;
#41 = DIRECTION ( 'NONE',  ( 1.224646799147352961E-16, 1.000000000000000000, -0.000000000000000000 ) ) ;
#42 = LOCAL_TIME ( 15, 40, 13.00000000000000000, #265 ) ;
#43 = DIRECTION ( 'NONE',  ( -1.000000000000000000, 1.224646799147352961E-16, 0.000000000000000000 ) ) ;
#44 = APPROVAL_STATUS ( 'not_yet_approved' ) ;
#45 = CC_DESIGN_DATE_AND_TIME_ASSIGNMENT ( #27, #179, ( #217 ) ) ;
#46 = CIRCLE ( 'NONE', #79, 37.29999999999999716 ) ;
#47 = AXIS2_PLACEMENT_3D ( 'NONE', #271, #227, #192 ) ;
#48 = DIRECTION ( 'NONE',  ( 1.224646799147352961E-16, 1.000000000000000000, -0.000000000000000000 ) ) ;
#49 = EDGE_LOOP ( 'NONE', ( #133, #108, #73, #162 ) ) ;
#50 = ORIENTED_EDGE ( 'NONE', *, *, #172, .F. ) ;
#51 = CC_DESIGN_DATE_AND_TIME_ASSIGNMENT ( #246, #219, ( #253 ) ) ;
#52 = PERSON_AND_ORGANIZATION ( #201, #238 ) ;
#53 = APPROVAL_PERSON_ORGANIZATION ( #240, #96, #83 ) ;
#54 = CONICAL_SURFACE ( 'NONE', #115, 37.50000000000000000, 0.7853981633974450594 ) ;
#55 = FACE_OUTER_BOUND ( 'NONE', #34, .T. ) ;
#56 = DIRECTION ( 'NONE',  ( -1.000000000000000000, 1.272130549049658454E-16, 0.000000000000000000 ) ) ;
#57 = DIRECTION ( 'NONE',  ( 1.224646799147352961E-16, 1.000000000000000000, -0.000000000000000000 ) ) ;
#58 = FACE_OUTER_BOUND ( 'NONE', #158, .T. ) ;
#59 = APPROVAL ( #30, 'NON SPECIFICATO' ) ;
#60 = CYLINDRICAL_SURFACE ( 'NONE', #170, 37.50000000000000000 ) ;
#61 = COORDINATED_UNIVERSAL_TIME_OFFSET ( 1, 0, .AHEAD. ) ;
#62 = CARTESIAN_POINT ( 'NONE',  ( 37.50000000000000000, 0.1999999999999859668, 4.592425496802574367E-15 ) ) ;
#63 = DIRECTION ( 'NONE',  ( 1.000000000000000000, 0.000000000000000000, 0.000000000000000000 ) ) ;
#64 = APPLICATION_PROTOCOL_DEFINITION ( 'international standard', 'config_control_design', 1994, #270 ) ;
#65 = CC_DESIGN_PERSON_AND_ORGANIZATION_ASSIGNMENT ( #33, #182, ( #217 ) ) ;
#66 = CONICAL_SURFACE ( 'NONE', #191, 37.50000000000000000, 0.7853981633974450594 ) ;
#67 = ORIENTED_EDGE ( 'NONE', *, *, #29, .F. ) ;
#68 = ADVANCED_FACE ( 'NONE', ( #255 ), #60, .T. ) ;
#69 = ORIENTED_EDGE ( 'NONE', *, *, #87, .T. ) ;
#70 = COORDINATED_UNIVERSAL_TIME_OFFSET ( 1, 0, .AHEAD. ) ;
#71 = ORIENTED_EDGE ( 'NONE', *, *, #258, .T. ) ;
#72 = CALENDAR_DATE ( 2021, 5, 11 ) ;
#73 = ORIENTED_EDGE ( 'NONE', *, *, #194, .T. ) ;
#74 = DIRECTION ( 'NONE',  ( 1.000000000000000000, -1.224646799147352961E-16, 0.000000000000000000 ) ) ;
#75 = DIRECTION ( 'NONE',  ( -1.000000000000000000, 1.272130549049658454E-16, 0.000000000000000000 ) ) ;
#76 = CARTESIAN_POINT ( 'NONE',  ( -37.29999999999999716, -4.973046557052812944E-15, 0.000000000000000000 ) ) ;
#77 = CARTESIAN_POINT ( 'NONE',  ( 37.29999999999999716, -1.410891167869206352E-14, 4.580179028811101010E-15 ) ) ;
#78 = CC_DESIGN_APPROVAL ( #4, ( #253 ) ) ;
#79 = AXIS2_PLACEMENT_3D ( 'NONE', #176, #126, #124 ) ;
#80 = UNCERTAINTY_MEASURE_WITH_UNIT (LENGTH_MEASURE( 1.000000000000000082E-05 ), #3, 'distance_accuracy_value', 'NONE');
#81 = CARTESIAN_POINT ( 'NONE',  ( 37.29999999999999716, 2.999999999999985345, 0.000000000000000000 ) ) ;
#82 = VECTOR ( 'NONE', #168, 1000.000000000000114 ) ;
#83 = APPROVAL_ROLE ( '' ) ;
#84 = FACE_OUTER_BOUND ( 'NONE', #263, .T. ) ;
#85 = DIRECTION ( 'NONE',  ( 0.000000000000000000, 0.000000000000000000, 1.000000000000000000 ) ) ;
#86 = DIRECTION ( 'NONE',  ( -1.000000000000000000, 1.221534447667001744E-16, 0.000000000000000000 ) ) ;
#87 = EDGE_CURVE ( 'NONE', #222, #241, #239, .T. ) ;
#88 = VECTOR ( 'NONE', #2, 1000.000000000000000 ) ;
#89 = AXIS2_PLACEMENT_3D ( 'NONE', #185, #13, #189 ) ;
#90 = APPROVAL_DATE_TIME ( #146, #96 ) ;
#91 = CC_DESIGN_PERSON_AND_ORGANIZATION_ASSIGNMENT ( #23, #1, ( #31 ) ) ;
#92 = PERSON_AND_ORGANIZATION ( #201, #238 ) ;
#93 = VERTEX_POINT ( 'NONE', #76 ) ;
#94 = FACE_OUTER_BOUND ( 'NONE', #112, .T. ) ;
#95 = ORIENTED_EDGE ( 'NONE', *, *, #242, .F. ) ;
#96 = APPROVAL ( #44, 'NON SPECIFICATO' ) ;
#97 = PLANE ( 'NONE',  #128 ) ;
#98 = VERTEX_POINT ( 'NONE', #77 ) ;
#99 = APPROVAL_PERSON_ORGANIZATION ( #155, #59, #157 ) ;
#100 = CARTESIAN_POINT ( 'NONE',  ( 3.673940397442059375E-16, 3.000000000000000000, 0.000000000000000000 ) ) ;
#101 = AXIS2_PLACEMENT_3D ( 'NONE', #232, #165, #251 ) ;
#102 =( NAMED_UNIT ( * ) PLANE_ANGLE_UNIT ( ) SI_UNIT ( $, .RADIAN. ) );
#103 = DIRECTION ( 'NONE',  ( -1.000000000000000000, 1.221534447667001744E-16, 0.000000000000000000 ) ) ;
#104 = DIRECTION ( 'NONE',  ( 1.224646799147352961E-16, 1.000000000000000000, -0.000000000000000000 ) ) ;
#105 = EDGE_CURVE ( 'NONE', #93, #98, #205, .T. ) ;
#106 = CARTESIAN_POINT ( 'NONE',  ( 0.000000000000000000, 0.000000000000000000, 0.000000000000000000 ) ) ;
#107 = ADVANCED_FACE ( 'NONE', ( #249 ), #275, .T. ) ;
#108 = ORIENTED_EDGE ( 'NONE', *, *, #237, .T. ) ;
#109 = SECURITY_CLASSIFICATION_LEVEL ( 'unclassified' ) ;
#110 = VERTEX_POINT ( 'NONE', #252 ) ;
#111 = APPROVAL_DATE_TIME ( #130, #59 ) ;
#112 = EDGE_LOOP ( 'NONE', ( #117, #184, #244, #9 ) ) ;
#113 = APPROVAL_STATUS ( 'not_yet_approved' ) ;
#114 = AXIS2_PLACEMENT_3D ( 'NONE', #106, #85, #63 ) ;
#115 = AXIS2_PLACEMENT_3D ( 'NONE', #207, #39, #15 ) ;
#116 = ADVANCED_FACE ( 'NONE', ( #55 ), #35, .T. ) ;
#117 = ORIENTED_EDGE ( 'NONE', *, *, #258, .F. ) ;
#118 = DIRECTION ( 'NONE',  ( 0.7071067811865459074, -0.7071067811865491270, 0.000000000000000000 ) ) ;
#119 = FACE_OUTER_BOUND ( 'NONE', #187, .T. ) ;
#120 = CC_DESIGN_PERSON_AND_ORGANIZATION_ASSIGNMENT ( #92, #6, ( #32 ) ) ;
#121 = DIRECTION ( 'NONE',  ( -1.000000000000000000, 1.224646799147352961E-16, 0.000000000000000000 ) ) ;
#122 = CARTESIAN_POINT ( 'NONE',  ( -1.155557966632341512E-30, -9.540979117872439019E-15, 0.000000000000000000 ) ) ;
#123 = CARTESIAN_POINT ( 'NONE',  ( 3.429011037612576950E-16, 2.799999999999990496, 0.000000000000000000 ) ) ;
#124 = DIRECTION ( 'NONE',  ( -1.000000000000000000, 1.278951624379683673E-16, 0.000000000000000000 ) ) ;
#125 = VECTOR ( 'NONE', #211, 1000.000000000000000 ) ;
#126 = DIRECTION ( 'NONE',  ( 1.224646799147352961E-16, 1.000000000000000000, -0.000000000000000000 ) ) ;
#127 = EDGE_CURVE ( 'NONE', #224, #228, #12, .T. ) ;
#128 = AXIS2_PLACEMENT_3D ( 'NONE', #144, #231, #74 ) ;
#129 = CARTESIAN_POINT ( 'NONE',  ( -37.50000000000000000, 2.799999999999995381, 4.592425496802575156E-15 ) ) ;
#130 = DATE_AND_TIME ( #132, #7 ) ;
#131 = ORIENTED_EDGE ( 'NONE', *, *, #200, .F. ) ;
#132 = CALENDAR_DATE ( 2021, 5, 11 ) ;
#133 = ORIENTED_EDGE ( 'NONE', *, *, #266, .F. ) ;
#134 = ORIENTED_EDGE ( 'NONE', *, *, #242, .T. ) ;
#135 = CC_DESIGN_APPROVAL ( #59, ( #32 ) ) ;
#136 = PERSON_AND_ORGANIZATION ( #201, #238 ) ;
#137 = AXIS2_PLACEMENT_3D ( 'NONE', #175, #151, #86 ) ;
#138 = CIRCLE ( 'NONE', #213, 37.29999999999999716 ) ;
#139 = LINE ( 'NONE', #226, #223 ) ;
#140 = PRODUCT_DEFINITION_SHAPE ( 'NONE', 'NONE',  #217 ) ;
#141 = EDGE_CURVE ( 'NONE', #98, #93, #138, .T. ) ;
#142 = LINE ( 'NONE', #81, #250 ) ;
#143 = DIRECTION ( 'NONE',  ( 1.224646799147352961E-16, 1.000000000000000000, -0.000000000000000000 ) ) ;
#144 = CARTESIAN_POINT ( 'NONE',  ( -5.594103989328727892E-31, -4.567932560819626864E-15, 0.000000000000000000 ) ) ;
#145 = DIRECTION ( 'NONE',  ( -1.000000000000000000, 1.224646799147352961E-16, 0.000000000000000000 ) ) ;
#146 = DATE_AND_TIME ( #173, #212 ) ;
#147 = CLOSED_SHELL ( 'NONE', ( #40, #116, #107, #209, #14, #68, #22, #159 ) ) ;
#148 = CARTESIAN_POINT ( 'NONE',  ( 3.673940397442053459E-16, 2.999999999999995115, 0.000000000000000000 ) ) ;
#149 = CARTESIAN_POINT ( 'NONE',  ( 37.50000000000000000, 2.999999999999995115, 4.592425496802574367E-15 ) ) ;
#150 = EDGE_CURVE ( 'NONE', #93, #110, #208, .T. ) ;
#151 = DIRECTION ( 'NONE',  ( 1.224646799147352961E-16, 1.000000000000000000, -0.000000000000000000 ) ) ;
#152 = LOCAL_TIME ( 15, 40, 13.00000000000000000, #181 ) ;
#153 = CARTESIAN_POINT ( 'NONE',  ( 37.50000000000000000, 2.799999999999985612, 0.000000000000000000 ) ) ;
#154 = ADVANCED_BREP_SHAPE_REPRESENTATION ( 'DP22409_WI048', ( #230, #114 ), #177 ) ;
#155 = PERSON_AND_ORGANIZATION ( #201, #238 ) ;
#156 = ORIENTED_EDGE ( 'NONE', *, *, #150, .T. ) ;
#157 = APPROVAL_ROLE ( '' ) ;
#158 = EDGE_LOOP ( 'NONE', ( #247, #267 ) ) ;
#159 = ADVANCED_FACE ( 'NONE', ( #58 ), #97, .T. ) ;
#160 = ORIENTED_EDGE ( 'NONE', *, *, #237, .F. ) ;
#161 = COORDINATED_UNIVERSAL_TIME_OFFSET ( 1, 0, .AHEAD. ) ;
#162 = ORIENTED_EDGE ( 'NONE', *, *, #127, .F. ) ;
#163 = CIRCLE ( 'NONE', #248, 37.50000000000000000 ) ;
#164 = DIRECTION ( 'NONE',  ( -1.000000000000000000, 1.272130549049658454E-16, 0.000000000000000000 ) ) ;
#165 = DIRECTION ( 'NONE',  ( -1.224646799147352961E-16, -1.000000000000000000, 0.000000000000000000 ) ) ;
#166 = CC_DESIGN_SECURITY_CLASSIFICATION ( #253, ( #32 ) ) ;
#167 = APPLICATION_CONTEXT ( 'configuration controlled 3d designs of mechanical parts and assemblies' ) ;
#168 = DIRECTION ( 'NONE',  ( -0.7071067811865451302, 0.7071067811865499042, 0.000000000000000000 ) ) ;
#169 = AXIS2_PLACEMENT_3D ( 'NONE', #174, #233, #103 ) ;
#170 = AXIS2_PLACEMENT_3D ( 'NONE', #100, #186, #164 ) ;
#171 = FACE_OUTER_BOUND ( 'NONE', #10, .T. ) ;
#172 = EDGE_CURVE ( 'NONE', #98, #268, #210, .T. ) ;
#173 = CALENDAR_DATE ( 2021, 5, 11 ) ;
#174 = CARTESIAN_POINT ( 'NONE',  ( 2.449293598294592214E-17, 0.1999999999999905465, 0.000000000000000000 ) ) ;
#175 = CARTESIAN_POINT ( 'NONE',  ( 2.449293598294592214E-17, 0.1999999999999905465, 0.000000000000000000 ) ) ;
#176 = CARTESIAN_POINT ( 'NONE',  ( 3.673940397442047049E-16, 2.999999999999990230, 0.000000000000000000 ) ) ;
#177 =( GEOMETRIC_REPRESENTATION_CONTEXT ( 3 ) GLOBAL_UNCERTAINTY_ASSIGNED_CONTEXT ( ( #80 ) ) GLOBAL_UNIT_ASSIGNED_CONTEXT ( ( #3, #102, #235 ) ) REPRESENTATION_CONTEXT ( 'NONE', 'WORKASPACE' ) );
#178 = APPROVAL_ROLE ( '' ) ;
#179 = DATE_TIME_ROLE ( 'creation_date' ) ;
#180 = ORIENTED_EDGE ( 'NONE', *, *, #229, .F. ) ;
#181 = COORDINATED_UNIVERSAL_TIME_OFFSET ( 1, 0, .AHEAD. ) ;
#182 = PERSON_AND_ORGANIZATION_ROLE ( 'creator' ) ;
#183 = EDGE_LOOP ( 'NONE', ( #95, #71, #269, #67 ) ) ;
#184 = ORIENTED_EDGE ( 'NONE', *, *, #87, .F. ) ;
#185 = CARTESIAN_POINT ( 'NONE',  ( 3.673940397442047049E-16, 2.999999999999990230, 0.000000000000000000 ) ) ;
#186 = DIRECTION ( 'NONE',  ( 1.224646799147352961E-16, 1.000000000000000000, -0.000000000000000000 ) ) ;
#187 = EDGE_LOOP ( 'NONE', ( #50, #245, #156, #160 ) ) ;
#188 = CC_DESIGN_PERSON_AND_ORGANIZATION_ASSIGNMENT ( #52, #202, ( #32 ) ) ;
#189 = DIRECTION ( 'NONE',  ( 1.000000000000000000, -1.278951624379683673E-16, 0.000000000000000000 ) ) ;
#190 = CIRCLE ( 'NONE', #169, 37.50000000000000000 ) ;
#191 = AXIS2_PLACEMENT_3D ( 'NONE', #19, #273, #36 ) ;
#192 = DIRECTION ( 'NONE',  ( -1.000000000000000000, 1.278951624379683673E-16, 0.000000000000000000 ) ) ;
#193 = MECHANICAL_CONTEXT ( 'NONE', #167, 'mechanical' ) ;
#194 = EDGE_CURVE ( 'NONE', #110, #228, #139, .T. ) ;
#195 = CARTESIAN_POINT ( 'NONE',  ( 37.29999999999999716, 2.999999999999985345, 0.000000000000000000 ) ) ;
#196 = PLANE ( 'NONE',  #20 ) ;
#197 = CARTESIAN_POINT ( 'NONE',  ( -37.29999999999999716, 2.999999999999994671, 4.567932560819627653E-15 ) ) ;
#198 = APPROVAL_DATE_TIME ( #11, #4 ) ;
#199 = ORIENTED_EDGE ( 'NONE', *, *, #194, .F. ) ;
#200 = EDGE_CURVE ( 'NONE', #110, #268, #204, .T. ) ;
#201 = PERSON ( 'NON SPECIFICATO', 'NON SPECIFICATO', 'NON SPECIFICATO', ('NON SPECIFICATO'), ('NON SPECIFICATO'), ('NON SPECIFICATO') ) ;
#202 = PERSON_AND_ORGANIZATION_ROLE ( 'creator' ) ;
#203 = ORIENTED_EDGE ( 'NONE', *, *, #105, .T. ) ;
#204 = CIRCLE ( 'NONE', #137, 37.50000000000000000 ) ;
#205 = CIRCLE ( 'NONE', #21, 37.29999999999999716 ) ;
#206 = DIRECTION ( 'NONE',  ( 1.224646799147352961E-16, 1.000000000000000000, -0.000000000000000000 ) ) ;
#207 = CARTESIAN_POINT ( 'NONE',  ( 2.449293598294592214E-17, 0.1999999999999905465, 0.000000000000000000 ) ) ;
#208 = LINE ( 'NONE', #16, #82 ) ;
#209 = ADVANCED_FACE ( 'NONE', ( #84 ), #196, .T. ) ;
#210 = LINE ( 'NONE', #17, #125 ) ;
#211 = DIRECTION ( 'NONE',  ( 0.7071067811865453523, 0.7071067811865496822, 8.659560562354904508E-17 ) ) ;
#212 = LOCAL_TIME ( 15, 40, 13.00000000000000000, #61 ) ;
#213 = AXIS2_PLACEMENT_3D ( 'NONE', #38, #41, #121 ) ;
#214 = CC_DESIGN_PERSON_AND_ORGANIZATION_ASSIGNMENT ( #221, #262, ( #253 ) ) ;
#215 = DIRECTION ( 'NONE',  ( -1.000000000000000000, 1.272130549049658454E-16, 0.000000000000000000 ) ) ;
#216 = DIRECTION ( 'NONE',  ( -0.7071067811865462405, -0.7071067811865489050, 8.659560562354914369E-17 ) ) ;
#217 = PRODUCT_DEFINITION ( 'NON CONOSCIUTO', '', #32, #37 ) ;
#218 = CONICAL_SURFACE ( 'NONE', #89, 37.29999999999999716, 0.7853981633974461696 ) ;
#219 = DATE_TIME_ROLE ( 'classification_date' ) ;
#220 = ORIENTED_EDGE ( 'NONE', *, *, #200, .T. ) ;
#221 = PERSON_AND_ORGANIZATION ( #201, #238 ) ;
#222 = VERTEX_POINT ( 'NONE', #195 ) ;
#223 = VECTOR ( 'NONE', #234, 1000.000000000000000 ) ;
#224 = VERTEX_POINT ( 'NONE', #153 ) ;
#225 = AXIS2_PLACEMENT_3D ( 'NONE', #254, #57, #75 ) ;
#226 = CARTESIAN_POINT ( 'NONE',  ( -37.50000000000000000, 3.000000000000004885, 0.000000000000000000 ) ) ;
#227 = DIRECTION ( 'NONE',  ( 1.224646799147352961E-16, 1.000000000000000000, -0.000000000000000000 ) ) ;
#228 = VERTEX_POINT ( 'NONE', #129 ) ;
#229 = EDGE_CURVE ( 'NONE', #228, #224, #163, .T. ) ;
#230 = MANIFOLD_SOLID_BREP ( 'Rivoluzione1', #147 ) ;
#231 = DIRECTION ( 'NONE',  ( -1.224646799147352961E-16, -1.000000000000000000, 0.000000000000000000 ) ) ;
#232 = CARTESIAN_POINT ( 'NONE',  ( 3.673940397442047049E-16, 2.999999999999990230, 0.000000000000000000 ) ) ;
#233 = DIRECTION ( 'NONE',  ( 1.224646799147352961E-16, 1.000000000000000000, -0.000000000000000000 ) ) ;
#234 = DIRECTION ( 'NONE',  ( 1.224646799147352961E-16, 1.000000000000000000, -0.000000000000000000 ) ) ;
#235 =( NAMED_UNIT ( * ) SI_UNIT ( $, .STERADIAN. ) SOLID_ANGLE_UNIT ( ) );
#236 = CARTESIAN_POINT ( 'NONE',  ( 3.429011037612576950E-16, 2.799999999999990496, 0.000000000000000000 ) ) ;
#237 = EDGE_CURVE ( 'NONE', #268, #110, #190, .T. ) ;
#238 = ORGANIZATION ( 'NON SPECIFICATO', 'NON SPECIFICATO', '' ) ;
#239 = CIRCLE ( 'NONE', #47, 37.29999999999999716 ) ;
#240 = PERSON_AND_ORGANIZATION ( #201, #238 ) ;
#241 = VERTEX_POINT ( 'NONE', #257 ) ;
#242 = EDGE_CURVE ( 'NONE', #241, #222, #46, .T. ) ;
#243 = CALENDAR_DATE ( 2021, 5, 11 ) ;
#244 = ORIENTED_EDGE ( 'NONE', *, *, #29, .T. ) ;
#245 = ORIENTED_EDGE ( 'NONE', *, *, #141, .T. ) ;
#246 = DATE_AND_TIME ( #72, #42 ) ;
#247 = ORIENTED_EDGE ( 'NONE', *, *, #105, .F. ) ;
#248 = AXIS2_PLACEMENT_3D ( 'NONE', #236, #48, #215 ) ;
#249 = FACE_OUTER_BOUND ( 'NONE', #183, .T. ) ;
#250 = VECTOR ( 'NONE', #118, 1000.000000000000000 ) ;
#251 = DIRECTION ( 'NONE',  ( 1.000000000000000000, -1.278951624379683673E-16, 0.000000000000000000 ) ) ;
#252 = CARTESIAN_POINT ( 'NONE',  ( -37.50000000000000000, 0.1999999999999951261, 0.000000000000000000 ) ) ;
#253 = SECURITY_CLASSIFICATION ( '', '', #109 ) ;
#254 = CARTESIAN_POINT ( 'NONE',  ( 3.673940397442059375E-16, 3.000000000000000000, 0.000000000000000000 ) ) ;
#255 = FACE_OUTER_BOUND ( 'NONE', #49, .T. ) ;
#256 = APPROVAL_PERSON_ORGANIZATION ( #136, #4, #178 ) ;
#257 = CARTESIAN_POINT ( 'NONE',  ( -37.29999999999999716, 2.999999999999994671, 4.580179028811101010E-15 ) ) ;
#258 = EDGE_CURVE ( 'NONE', #241, #228, #5, .T. ) ;
#259 = LINE ( 'NONE', #149, #88 ) ;
#260 = LOCAL_TIME ( 15, 40, 13.00000000000000000, #161 ) ;
#261 = AXIS2_PLACEMENT_3D ( 'NONE', #123, #143, #56 ) ;
#262 = PERSON_AND_ORGANIZATION_ROLE ( 'classification_officer' ) ;
#263 = EDGE_LOOP ( 'NONE', ( #69, #134 ) ) ;
#264 = CALENDAR_DATE ( 2021, 5, 11 ) ;
#265 = COORDINATED_UNIVERSAL_TIME_OFFSET ( 1, 0, .AHEAD. ) ;
#266 = EDGE_CURVE ( 'NONE', #268, #224, #259, .T. ) ;
#267 = ORIENTED_EDGE ( 'NONE', *, *, #141, .F. ) ;
#268 = VERTEX_POINT ( 'NONE', #62 ) ;
#269 = ORIENTED_EDGE ( 'NONE', *, *, #229, .T. ) ;
#270 = APPLICATION_CONTEXT ( 'configuration controlled 3d designs of mechanical parts and assemblies' ) ;
#271 = CARTESIAN_POINT ( 'NONE',  ( 3.673940397442047049E-16, 2.999999999999990230, 0.000000000000000000 ) ) ;
#272 = ORIENTED_EDGE ( 'NONE', *, *, #266, .T. ) ;
#273 = DIRECTION ( 'NONE',  ( 1.224646799147352961E-16, 1.000000000000000000, -0.000000000000000000 ) ) ;
#274 = CC_DESIGN_APPROVAL ( #96, ( #217 ) ) ;
#275 = CONICAL_SURFACE ( 'NONE', #101, 37.29999999999999716, 0.7853981633974461696 ) ;
ENDSEC;
END-ISO-10303-21;
