ISO-10303-21;
HEADER;
FILE_DESCRIPTION (( 'STEP AP203' ),
    '1' );
FILE_NAME ('DP22408_WI036.step',
    '2021-11-05T14:37:49',
    ( '' ),
    ( '' ),
    'SwSTEP 2.0',
    'SolidWorks 2021',
    '' );
FILE_SCHEMA (( 'CONFIG_CONTROL_DESIGN' ));
ENDSEC;

DATA;
#1 = EDGE_CURVE ( 'NONE', #165, #6, #29, .T. ) ;
#2 = AXIS2_PLACEMENT_3D ( 'NONE', #88, #241, #55 ) ;
#3 = CIRCLE ( 'NONE', #77, 30.50000000000000000 ) ;
#4 = LOCAL_TIME ( 15, 37, 49.00000000000000000, #174 ) ;
#5 = ORIENTED_EDGE ( 'NONE', *, *, #208, .F. ) ;
#6 = VERTEX_POINT ( 'NONE', #115 ) ;
#7 = ORIENTED_EDGE ( 'NONE', *, *, #212, .T. ) ;
#8 = CIRCLE ( 'NONE', #61, 30.30000000000000071 ) ;
#9 = ORIENTED_EDGE ( 'NONE', *, *, #133, .T. ) ;
#10 = CARTESIAN_POINT ( 'NONE',  ( 2.449293598294611320E-17, 0.1999999999999922951, 0.000000000000000000 ) ) ;
#11 = CARTESIAN_POINT ( 'NONE',  ( 3.429011037612579415E-16, 2.799999999999992273, 0.000000000000000000 ) ) ;
#12 = CC_DESIGN_PERSON_AND_ORGANIZATION_ASSIGNMENT ( #97, #84, ( #231 ) ) ;
#13 = EDGE_CURVE ( 'NONE', #165, #260, #25, .T. ) ;
#14 = SECURITY_CLASSIFICATION_LEVEL ( 'unclassified' ) ;
#15 = ORGANIZATION ( 'NON SPECIFICATO', 'NON SPECIFICATO', '' ) ;
#16 = PERSON_AND_ORGANIZATION ( #210, #15 ) ;
#17 = ADVANCED_FACE ( 'NONE', ( #168 ), #200, .T. ) ;
#18 = AXIS2_PLACEMENT_3D ( 'NONE', #59, #220, #173 ) ;
#19 = LINE ( 'NONE', #101, #170 ) ;
#20 = DATE_TIME_ROLE ( 'creation_date' ) ;
#21 =( NAMED_UNIT ( * ) SI_UNIT ( $, .STERADIAN. ) SOLID_ANGLE_UNIT ( ) );
#22 = DATE_AND_TIME ( #157, #86 ) ;
#23 = CC_DESIGN_DATE_AND_TIME_ASSIGNMENT ( #250, #20, ( #118 ) ) ;
#24 = VECTOR ( 'NONE', #202, 1000.000000000000114 ) ;
#25 = CIRCLE ( 'NONE', #225, 30.30000000000000071 ) ;
#26 = FACE_OUTER_BOUND ( 'NONE', #207, .T. ) ;
#27 = AXIS2_PLACEMENT_3D ( 'NONE', #81, #63, #65 ) ;
#28 = FACE_OUTER_BOUND ( 'NONE', #129, .T. ) ;
#29 = LINE ( 'NONE', #216, #137 ) ;
#30 = ORIENTED_EDGE ( 'NONE', *, *, #236, .T. ) ;
#31 = LINE ( 'NONE', #214, #51 ) ;
#32 = CARTESIAN_POINT ( 'NONE',  ( -30.50000000000000000, 2.799999999999996270, 3.735172737399427541E-15 ) ) ;
#33 = DIRECTION ( 'NONE',  ( 1.224646799147352961E-16, 1.000000000000000000, -0.000000000000000000 ) ) ;
#34 = DATE_TIME_ROLE ( 'classification_date' ) ;
#35 = CIRCLE ( 'NONE', #223, 30.50000000000000000 ) ;
#36 = APPLICATION_CONTEXT ( 'configuration controlled 3d designs of mechanical parts and assemblies' ) ;
#37 = DIRECTION ( 'NONE',  ( -1.000000000000000000, 1.279714039655021615E-16, 0.000000000000000000 ) ) ;
#38 = CLOSED_SHELL ( 'NONE', ( #148, #154, #106, #259, #121, #267, #17, #252 ) ) ;
#39 = APPROVAL_ROLE ( '' ) ;
#40 = PERSON_AND_ORGANIZATION_ROLE ( 'creator' ) ;
#41 = DIRECTION ( 'NONE',  ( 1.224646799147352961E-16, 1.000000000000000000, -0.000000000000000000 ) ) ;
#42 = CALENDAR_DATE ( 2021, 5, 11 ) ;
#43 = AXIS2_PLACEMENT_3D ( 'NONE', #131, #33, #78 ) ;
#44 = APPROVAL_DATE_TIME ( #163, #245 ) ;
#45 = PRODUCT_RELATED_PRODUCT_CATEGORY ( 'detail', '', ( #264 ) ) ;
#46 = ORIENTED_EDGE ( 'NONE', *, *, #183, .F. ) ;
#47 = CC_DESIGN_APPROVAL ( #89, ( #231 ) ) ;
#48 = CONICAL_SURFACE ( 'NONE', #2, 30.30000000000000071, 0.7853981633974439491 ) ;
#49 = DIRECTION ( 'NONE',  ( -1.000000000000000000, 1.224646799147352961E-16, 0.000000000000000000 ) ) ;
#50 = ORIENTED_EDGE ( 'NONE', *, *, #183, .T. ) ;
#51 = VECTOR ( 'NONE', #126, 1000.000000000000000 ) ;
#52 = CARTESIAN_POINT ( 'NONE',  ( 30.50000000000000000, 0.1999999999999885480, 3.735172737399427541E-15 ) ) ;
#53 = CIRCLE ( 'NONE', #98, 30.50000000000000000 ) ;
#54 = CARTESIAN_POINT ( 'NONE',  ( 3.673940397442050500E-16, 2.999999999999992895, 0.000000000000000000 ) ) ;
#55 = DIRECTION ( 'NONE',  ( 1.000000000000000000, -1.288160997012480489E-16, 0.000000000000000000 ) ) ;
#56 = DIRECTION ( 'NONE',  ( 1.224646799147352961E-16, 1.000000000000000000, -0.000000000000000000 ) ) ;
#57 = DIRECTION ( 'NONE',  ( 1.224646799147352961E-16, 1.000000000000000000, -0.000000000000000000 ) ) ;
#58 = LOCAL_TIME ( 15, 37, 49.00000000000000000, #270 ) ;
#59 = CARTESIAN_POINT ( 'NONE',  ( 3.673940397442054938E-16, 2.999999999999996447, 0.000000000000000000 ) ) ;
#60 = PERSON_AND_ORGANIZATION ( #210, #15 ) ;
#61 = AXIS2_PLACEMENT_3D ( 'NONE', #69, #147, #49 ) ;
#62 = CYLINDRICAL_SURFACE ( 'NONE', #43, 30.50000000000000000 ) ;
#63 = DIRECTION ( 'NONE',  ( 0.000000000000000000, 0.000000000000000000, 1.000000000000000000 ) ) ;
#64 = DIRECTION ( 'NONE',  ( -1.000000000000000000, 1.279714039655021615E-16, 0.000000000000000000 ) ) ;
#65 = DIRECTION ( 'NONE',  ( 1.000000000000000000, 0.000000000000000000, 0.000000000000000000 ) ) ;
#66 = ORIENTED_EDGE ( 'NONE', *, *, #208, .T. ) ;
#67 = APPROVAL_DATE_TIME ( #22, #70 ) ;
#68 = ORIENTED_EDGE ( 'NONE', *, *, #166, .T. ) ;
#69 = CARTESIAN_POINT ( 'NONE',  ( -9.148167235839370302E-31, -7.806255641895631925E-15, 0.000000000000000000 ) ) ;
#70 = APPROVAL ( #123, 'NON SPECIFICATO' ) ;
#71 = EDGE_LOOP ( 'NONE', ( #114, #66, #85, #218 ) ) ;
#72 = AXIS2_PLACEMENT_3D ( 'NONE', #228, #83, #105 ) ;
#73 = EDGE_LOOP ( 'NONE', ( #151, #141, #211, #46 ) ) ;
#74 = EDGE_CURVE ( 'NONE', #184, #257, #263, .T. ) ;
#75 = DIRECTION ( 'NONE',  ( -1.224646799147352961E-16, -1.000000000000000000, 0.000000000000000000 ) ) ;
#76 = DIRECTION ( 'NONE',  ( 1.000000000000000000, -1.224646799147352961E-16, 0.000000000000000000 ) ) ;
#77 = AXIS2_PLACEMENT_3D ( 'NONE', #10, #41, #246 ) ;
#78 = DIRECTION ( 'NONE',  ( -1.000000000000000000, 1.279714039655021615E-16, 0.000000000000000000 ) ) ;
#79 = SHAPE_DEFINITION_REPRESENTATION ( #258, #145 ) ;
#80 = CYLINDRICAL_SURFACE ( 'NONE', #149, 30.50000000000000000 ) ;
#81 = CARTESIAN_POINT ( 'NONE',  ( 0.000000000000000000, 0.000000000000000000, 0.000000000000000000 ) ) ;
#82 = FACE_OUTER_BOUND ( 'NONE', #90, .T. ) ;
#83 = DIRECTION ( 'NONE',  ( 1.224646799147352961E-16, 1.000000000000000000, -0.000000000000000000 ) ) ;
#84 = PERSON_AND_ORGANIZATION_ROLE ( 'classification_officer' ) ;
#85 = ORIENTED_EDGE ( 'NONE', *, *, #164, .F. ) ;
#86 = LOCAL_TIME ( 15, 37, 49.00000000000000000, #181 ) ;
#87 = CARTESIAN_POINT ( 'NONE',  ( 3.673940397442050500E-16, 2.999999999999992895, 0.000000000000000000 ) ) ;
#88 = CARTESIAN_POINT ( 'NONE',  ( 3.673940397442050500E-16, 2.999999999999992895, 0.000000000000000000 ) ) ;
#89 = APPROVAL ( #162, 'NON SPECIFICATO' ) ;
#90 = EDGE_LOOP ( 'NONE', ( #233, #7 ) ) ;
#91 = LOCAL_TIME ( 15, 37, 49.00000000000000000, #136 ) ;
#92 = ORIENTED_EDGE ( 'NONE', *, *, #236, .F. ) ;
#93 = CIRCLE ( 'NONE', #249, 30.30000000000000071 ) ;
#94 = ORIENTED_EDGE ( 'NONE', *, *, #100, .F. ) ;
#95 = CARTESIAN_POINT ( 'NONE',  ( -4.544272141465427348E-31, -3.710679801416479249E-15, 0.000000000000000000 ) ) ;
#96 = DIRECTION ( 'NONE',  ( 1.224646799147352961E-16, 1.000000000000000000, -0.000000000000000000 ) ) ;
#97 = PERSON_AND_ORGANIZATION ( #210, #15 ) ;
#98 = AXIS2_PLACEMENT_3D ( 'NONE', #242, #96, #266 ) ;
#99 =( NAMED_UNIT ( * ) PLANE_ANGLE_UNIT ( ) SI_UNIT ( $, .RADIAN. ) );
#100 = EDGE_CURVE ( 'NONE', #254, #184, #8, .T. ) ;
#101 = CARTESIAN_POINT ( 'NONE',  ( 30.50000000000000000, 2.999999999999996003, 3.735172737399427541E-15 ) ) ;
#102 = APPLICATION_PROTOCOL_DEFINITION ( 'international standard', 'config_control_design', 1994, #36 ) ;
#103 = CC_DESIGN_SECURITY_CLASSIFICATION ( #231, ( #175 ) ) ;
#104 = EDGE_CURVE ( 'NONE', #194, #235, #31, .T. ) ;
#105 = DIRECTION ( 'NONE',  ( -1.000000000000000000, 1.226392621336062473E-16, 0.000000000000000000 ) ) ;
#106 = ADVANCED_FACE ( 'NONE', ( #28 ), #187, .T. ) ;
#107 = APPROVAL_STATUS ( 'not_yet_approved' ) ;
#108 = AXIS2_PLACEMENT_3D ( 'NONE', #243, #219, #134 ) ;
#109 = CC_DESIGN_PERSON_AND_ORGANIZATION_ASSIGNMENT ( #197, #138, ( #175 ) ) ;
#110 = ORIENTED_EDGE ( 'NONE', *, *, #213, .F. ) ;
#111 = AXIS2_PLACEMENT_3D ( 'NONE', #248, #57, #117 ) ;
#112 = DIRECTION ( 'NONE',  ( -0.7071067811865445751, -0.7071067811865504593, 8.659560562354895880E-17 ) ) ;
#113 = ORIENTED_EDGE ( 'NONE', *, *, #166, .F. ) ;
#114 = ORIENTED_EDGE ( 'NONE', *, *, #232, .T. ) ;
#115 = CARTESIAN_POINT ( 'NONE',  ( 30.50000000000000000, 2.799999999999988276, 0.000000000000000000 ) ) ;
#116 = DIRECTION ( 'NONE',  ( -1.000000000000000000, 1.288160997012480489E-16, 0.000000000000000000 ) ) ;
#117 = DIRECTION ( 'NONE',  ( -1.000000000000000000, 1.279714039655021615E-16, 0.000000000000000000 ) ) ;
#118 = PRODUCT_DEFINITION ( 'NON CONOSCIUTO', '', #175, #125 ) ;
#119 = DIRECTION ( 'NONE',  ( 1.224646799147352961E-16, 1.000000000000000000, -0.000000000000000000 ) ) ;
#120 = APPROVAL_DATE_TIME ( #224, #89 ) ;
#121 = ADVANCED_FACE ( 'NONE', ( #26 ), #48, .T. ) ;
#122 = FACE_OUTER_BOUND ( 'NONE', #262, .T. ) ;
#123 = APPROVAL_STATUS ( 'not_yet_approved' ) ;
#124 = AXIS2_PLACEMENT_3D ( 'NONE', #169, #195, #167 ) ;
#125 = DESIGN_CONTEXT ( 'detailed design', #144, 'design' ) ;
#126 = DIRECTION ( 'NONE',  ( 1.224646799147352961E-16, 1.000000000000000000, -0.000000000000000000 ) ) ;
#127 = ORIENTED_EDGE ( 'NONE', *, *, #1, .F. ) ;
#128 = CIRCLE ( 'NONE', #111, 30.50000000000000000 ) ;
#129 = EDGE_LOOP ( 'NONE', ( #255, #9, #186, #127 ) ) ;
#130 = LINE ( 'NONE', #256, #193 ) ;
#131 = CARTESIAN_POINT ( 'NONE',  ( 3.673940397442059375E-16, 3.000000000000000000, 0.000000000000000000 ) ) ;
#132 = CC_DESIGN_PERSON_AND_ORGANIZATION_ASSIGNMENT ( #274, #40, ( #175 ) ) ;
#133 = EDGE_CURVE ( 'NONE', #260, #235, #130, .T. ) ;
#134 = DIRECTION ( 'NONE',  ( -1.000000000000000000, 1.224646799147352961E-16, 0.000000000000000000 ) ) ;
#135 = CIRCLE ( 'NONE', #108, 30.30000000000000071 ) ;
#136 = COORDINATED_UNIVERSAL_TIME_OFFSET ( 1, 0, .AHEAD. ) ;
#137 = VECTOR ( 'NONE', #172, 1000.000000000000000 ) ;
#138 = PERSON_AND_ORGANIZATION_ROLE ( 'design_supplier' ) ;
#139 = DIRECTION ( 'NONE',  ( 1.224646799147352961E-16, 1.000000000000000000, -0.000000000000000000 ) ) ;
#140 = APPLICATION_PROTOCOL_DEFINITION ( 'international standard', 'config_control_design', 1994, #144 ) ;
#141 = ORIENTED_EDGE ( 'NONE', *, *, #74, .T. ) ;
#142 = LOCAL_TIME ( 15, 37, 49.00000000000000000, #227 ) ;
#143 = CC_DESIGN_DATE_AND_TIME_ASSIGNMENT ( #268, #34, ( #231 ) ) ;
#144 = APPLICATION_CONTEXT ( 'configuration controlled 3d designs of mechanical parts and assemblies' ) ;
#145 = ADVANCED_BREP_SHAPE_REPRESENTATION ( 'DP22408_WI036', ( #185, #27 ), #215 ) ;
#146 = EDGE_LOOP ( 'NONE', ( #5, #240, #234, #92 ) ) ;
#147 = DIRECTION ( 'NONE',  ( 1.224646799147352961E-16, 1.000000000000000000, -0.000000000000000000 ) ) ;
#148 = ADVANCED_FACE ( 'NONE', ( #177 ), #209, .T. ) ;
#149 = AXIS2_PLACEMENT_3D ( 'NONE', #156, #119, #64 ) ;
#150 = ORIENTED_EDGE ( 'NONE', *, *, #13, .F. ) ;
#151 = ORIENTED_EDGE ( 'NONE', *, *, #100, .T. ) ;
#152 = DIRECTION ( 'NONE',  ( 1.000000000000000000, -1.288160997012480489E-16, 0.000000000000000000 ) ) ;
#153 = CARTESIAN_POINT ( 'NONE',  ( -30.30000000000000071, 2.999999999999996447, 3.722926269407954184E-15 ) ) ;
#154 = ADVANCED_FACE ( 'NONE', ( #204 ), #80, .T. ) ;
#155 = APPROVAL_PERSON_ORGANIZATION ( #60, #245, #230 ) ;
#156 = CARTESIAN_POINT ( 'NONE',  ( 3.673940397442059375E-16, 3.000000000000000000, 0.000000000000000000 ) ) ;
#157 = CALENDAR_DATE ( 2021, 5, 11 ) ;
#158 = CARTESIAN_POINT ( 'NONE',  ( 30.30000000000000071, -1.151693544331211196E-14, 3.722926269407954184E-15 ) ) ;
#159 = FACE_OUTER_BOUND ( 'NONE', #146, .T. ) ;
#160 = PERSON_AND_ORGANIZATION_ROLE ( 'design_owner' ) ;
#161 = DIRECTION ( 'NONE',  ( -1.224646799147352961E-16, -1.000000000000000000, 0.000000000000000000 ) ) ;
#162 = APPROVAL_STATUS ( 'not_yet_approved' ) ;
#163 = DATE_AND_TIME ( #182, #142 ) ;
#164 = EDGE_CURVE ( 'NONE', #235, #6, #35, .T. ) ;
#165 = VERTEX_POINT ( 'NONE', #222 ) ;
#166 = EDGE_CURVE ( 'NONE', #184, #254, #135, .T. ) ;
#167 = DIRECTION ( 'NONE',  ( -1.000000000000000000, 1.226392621336062473E-16, 0.000000000000000000 ) ) ;
#168 = FACE_OUTER_BOUND ( 'NONE', #238, .T. ) ;
#169 = CARTESIAN_POINT ( 'NONE',  ( 2.449293598294611320E-17, 0.1999999999999922951, 0.000000000000000000 ) ) ;
#170 = VECTOR ( 'NONE', #180, 1000.000000000000000 ) ;
#171 = DIRECTION ( 'NONE',  ( 0.7071067811865453523, 0.7071067811865496822, 8.659560562354904508E-17 ) ) ;
#172 = DIRECTION ( 'NONE',  ( 0.7071067811865443531, -0.7071067811865506814, 0.000000000000000000 ) ) ;
#173 = DIRECTION ( 'NONE',  ( -1.000000000000000000, 1.224646799147352961E-16, 0.000000000000000000 ) ) ;
#174 = COORDINATED_UNIVERSAL_TIME_OFFSET ( 1, 0, .AHEAD. ) ;
#175 = PRODUCT_DEFINITION_FORMATION_WITH_SPECIFIED_SOURCE ( 'TUTTO', '', #264, .NOT_KNOWN. ) ;
#176 = PLANE ( 'NONE',  #253 ) ;
#177 = FACE_OUTER_BOUND ( 'NONE', #73, .T. ) ;
#178 = PERSON_AND_ORGANIZATION ( #210, #15 ) ;
#179 = APPROVAL_PERSON_ORGANIZATION ( #16, #89, #272 ) ;
#180 = DIRECTION ( 'NONE',  ( 1.224646799147352961E-16, 1.000000000000000000, -0.000000000000000000 ) ) ;
#181 = COORDINATED_UNIVERSAL_TIME_OFFSET ( 1, 0, .AHEAD. ) ;
#182 = CALENDAR_DATE ( 2021, 5, 11 ) ;
#183 = EDGE_CURVE ( 'NONE', #254, #194, #269, .T. ) ;
#184 = VERTEX_POINT ( 'NONE', #158 ) ;
#185 = MANIFOLD_SOLID_BREP ( 'Rivoluzione1', #38 ) ;
#186 = ORIENTED_EDGE ( 'NONE', *, *, #164, .T. ) ;
#187 = CONICAL_SURFACE ( 'NONE', #199, 30.30000000000000071, 0.7853981633974439491 ) ;
#188 = ORIENTED_EDGE ( 'NONE', *, *, #74, .F. ) ;
#189 = CC_DESIGN_APPROVAL ( #245, ( #175 ) ) ;
#190 = ORIENTED_EDGE ( 'NONE', *, *, #1, .T. ) ;
#191 = CC_DESIGN_PERSON_AND_ORGANIZATION_ASSIGNMENT ( #178, #160, ( #264 ) ) ;
#192 = DIRECTION ( 'NONE',  ( -1.000000000000000000, 1.288160997012480489E-16, 0.000000000000000000 ) ) ;
#193 = VECTOR ( 'NONE', #112, 1000.000000000000000 ) ;
#194 = VERTEX_POINT ( 'NONE', #251 ) ;
#195 = DIRECTION ( 'NONE',  ( 1.224646799147352961E-16, 1.000000000000000000, -0.000000000000000000 ) ) ;
#196 = CARTESIAN_POINT ( 'NONE',  ( 3.673940397442050500E-16, 2.999999999999992895, 0.000000000000000000 ) ) ;
#197 = PERSON_AND_ORGANIZATION ( #210, #15 ) ;
#198 =( LENGTH_UNIT ( ) NAMED_UNIT ( * ) SI_UNIT ( .MILLI., .METRE. ) );
#199 = AXIS2_PLACEMENT_3D ( 'NONE', #87, #75, #152 ) ;
#200 = CONICAL_SURFACE ( 'NONE', #124, 30.50000000000000000, 0.7853981633974450594 ) ;
#201 = CALENDAR_DATE ( 2021, 5, 11 ) ;
#202 = DIRECTION ( 'NONE',  ( -0.7071067811865451302, 0.7071067811865499042, 0.000000000000000000 ) ) ;
#203 = APPROVAL_PERSON_ORGANIZATION ( #221, #70, #39 ) ;
#204 = FACE_OUTER_BOUND ( 'NONE', #71, .T. ) ;
#205 = MECHANICAL_CONTEXT ( 'NONE', #36, 'mechanical' ) ;
#206 = CC_DESIGN_PERSON_AND_ORGANIZATION_ASSIGNMENT ( #247, #229, ( #118 ) ) ;
#207 = EDGE_LOOP ( 'NONE', ( #237, #150, #190, #30 ) ) ;
#208 = EDGE_CURVE ( 'NONE', #257, #6, #19, .T. ) ;
#209 = CONICAL_SURFACE ( 'NONE', #72, 30.50000000000000000, 0.7853981633974450594 ) ;
#210 = PERSON ( 'NON SPECIFICATO', 'NON SPECIFICATO', 'NON SPECIFICATO', ('NON SPECIFICATO'), ('NON SPECIFICATO'), ('NON SPECIFICATO') ) ;
#211 = ORIENTED_EDGE ( 'NONE', *, *, #232, .F. ) ;
#212 = EDGE_CURVE ( 'NONE', #260, #165, #93, .T. ) ;
#213 = EDGE_CURVE ( 'NONE', #257, #194, #3, .T. ) ;
#214 = CARTESIAN_POINT ( 'NONE',  ( -30.50000000000000000, 3.000000000000003997, 0.000000000000000000 ) ) ;
#215 =( GEOMETRIC_REPRESENTATION_CONTEXT ( 3 ) GLOBAL_UNCERTAINTY_ASSIGNED_CONTEXT ( ( #275 ) ) GLOBAL_UNIT_ASSIGNED_CONTEXT ( ( #198, #99, #21 ) ) REPRESENTATION_CONTEXT ( 'NONE', 'WORKASPACE' ) );
#216 = CARTESIAN_POINT ( 'NONE',  ( 30.30000000000000071, 2.999999999999988898, 0.000000000000000000 ) ) ;
#217 = DIRECTION ( 'NONE',  ( 1.224646799147352961E-16, 1.000000000000000000, -0.000000000000000000 ) ) ;
#218 = ORIENTED_EDGE ( 'NONE', *, *, #104, .F. ) ;
#219 = DIRECTION ( 'NONE',  ( 1.224646799147352961E-16, 1.000000000000000000, -0.000000000000000000 ) ) ;
#220 = DIRECTION ( 'NONE',  ( 1.224646799147352961E-16, 1.000000000000000000, -0.000000000000000000 ) ) ;
#221 = PERSON_AND_ORGANIZATION ( #210, #15 ) ;
#222 = CARTESIAN_POINT ( 'NONE',  ( 30.30000000000000071, 2.999999999999988898, 0.000000000000000000 ) ) ;
#223 = AXIS2_PLACEMENT_3D ( 'NONE', #11, #56, #37 ) ;
#224 = DATE_AND_TIME ( #244, #91 ) ;
#225 = AXIS2_PLACEMENT_3D ( 'NONE', #54, #217, #192 ) ;
#226 = PLANE ( 'NONE',  #18 ) ;
#227 = COORDINATED_UNIVERSAL_TIME_OFFSET ( 1, 0, .AHEAD. ) ;
#228 = CARTESIAN_POINT ( 'NONE',  ( 2.449293598294611320E-17, 0.1999999999999922951, 0.000000000000000000 ) ) ;
#229 = PERSON_AND_ORGANIZATION_ROLE ( 'creator' ) ;
#230 = APPROVAL_ROLE ( '' ) ;
#231 = SECURITY_CLASSIFICATION ( '', '', #14 ) ;
#232 = EDGE_CURVE ( 'NONE', #194, #257, #53, .T. ) ;
#233 = ORIENTED_EDGE ( 'NONE', *, *, #13, .T. ) ;
#234 = ORIENTED_EDGE ( 'NONE', *, *, #104, .T. ) ;
#235 = VERTEX_POINT ( 'NONE', #32 ) ;
#236 = EDGE_CURVE ( 'NONE', #6, #235, #128, .T. ) ;
#237 = ORIENTED_EDGE ( 'NONE', *, *, #133, .F. ) ;
#238 = EDGE_LOOP ( 'NONE', ( #188, #68, #50, #110 ) ) ;
#239 = CC_DESIGN_APPROVAL ( #70, ( #118 ) ) ;
#240 = ORIENTED_EDGE ( 'NONE', *, *, #213, .T. ) ;
#241 = DIRECTION ( 'NONE',  ( -1.224646799147352961E-16, -1.000000000000000000, 0.000000000000000000 ) ) ;
#242 = CARTESIAN_POINT ( 'NONE',  ( 2.449293598294611320E-17, 0.1999999999999922951, 0.000000000000000000 ) ) ;
#243 = CARTESIAN_POINT ( 'NONE',  ( -9.148167235839370302E-31, -7.806255641895631925E-15, 0.000000000000000000 ) ) ;
#244 = CALENDAR_DATE ( 2021, 5, 11 ) ;
#245 = APPROVAL ( #107, 'NON SPECIFICATO' ) ;
#246 = DIRECTION ( 'NONE',  ( -1.000000000000000000, 1.226392621336062473E-16, 0.000000000000000000 ) ) ;
#247 = PERSON_AND_ORGANIZATION ( #210, #15 ) ;
#248 = CARTESIAN_POINT ( 'NONE',  ( 3.429011037612579415E-16, 2.799999999999992273, 0.000000000000000000 ) ) ;
#249 = AXIS2_PLACEMENT_3D ( 'NONE', #196, #139, #116 ) ;
#250 = DATE_AND_TIME ( #42, #4 ) ;
#251 = CARTESIAN_POINT ( 'NONE',  ( -30.50000000000000000, 0.1999999999999960143, 0.000000000000000000 ) ) ;
#252 = ADVANCED_FACE ( 'NONE', ( #122 ), #176, .T. ) ;
#253 = AXIS2_PLACEMENT_3D ( 'NONE', #95, #161, #76 ) ;
#254 = VERTEX_POINT ( 'NONE', #273 ) ;
#255 = ORIENTED_EDGE ( 'NONE', *, *, #212, .F. ) ;
#256 = CARTESIAN_POINT ( 'NONE',  ( -30.30000000000000071, 2.999999999999996447, 3.710679801416480038E-15 ) ) ;
#257 = VERTEX_POINT ( 'NONE', #271 ) ;
#258 = PRODUCT_DEFINITION_SHAPE ( 'NONE', 'NONE',  #118 ) ;
#259 = ADVANCED_FACE ( 'NONE', ( #82 ), #226, .T. ) ;
#260 = VERTEX_POINT ( 'NONE', #153 ) ;
#261 = VECTOR ( 'NONE', #171, 1000.000000000000000 ) ;
#262 = EDGE_LOOP ( 'NONE', ( #94, #113 ) ) ;
#263 = LINE ( 'NONE', #52, #261 ) ;
#264 = PRODUCT ( 'DP22408_WI036', 'DP22408_WI036', '', ( #205 ) ) ;
#265 = CARTESIAN_POINT ( 'NONE',  ( -30.50000000000000000, 0.1999999999999960143, 0.000000000000000000 ) ) ;
#266 = DIRECTION ( 'NONE',  ( -1.000000000000000000, 1.226392621336062473E-16, 0.000000000000000000 ) ) ;
#267 = ADVANCED_FACE ( 'NONE', ( #159 ), #62, .T. ) ;
#268 = DATE_AND_TIME ( #201, #58 ) ;
#269 = LINE ( 'NONE', #265, #24 ) ;
#270 = COORDINATED_UNIVERSAL_TIME_OFFSET ( 1, 0, .AHEAD. ) ;
#271 = CARTESIAN_POINT ( 'NONE',  ( 30.50000000000000000, 0.1999999999999885480, 3.735172737399427541E-15 ) ) ;
#272 = APPROVAL_ROLE ( '' ) ;
#273 = CARTESIAN_POINT ( 'NONE',  ( -30.30000000000000071, -4.095575840479152676E-15, 0.000000000000000000 ) ) ;
#274 = PERSON_AND_ORGANIZATION ( #210, #15 ) ;
#275 = UNCERTAINTY_MEASURE_WITH_UNIT (LENGTH_MEASURE( 1.000000000000000082E-05 ), #198, 'distance_accuracy_value', 'NONE');
ENDSEC;
END-ISO-10303-21;
