ISO-10303-21;
HEADER;
/****************************************************************
 * Generated by software with PDE/Lib inside                    *
 * PDElib Version v51a, created Tue 01/15/2008                  *
 * International Technegroup Inc. (www.iti-oh.com)              *
 ****************************************************************/
FILE_DESCRIPTION((''),'2;1');
FILE_NAME('\\\\Zion\\public\\_51k\\51563.stp','2008-09-12T09:33:47',('PODLENA'),(''),'Autodesk Inventor 2009','Autodesk Inventor 2009','');
FILE_SCHEMA(('AUTOMOTIVE_DESIGN { 1 0 10303 214 1 1 1 1 }'));
ENDSEC;
DATA;
#5=APPLICATION_CONTEXT('automotive design');
#6=APPLICATION_PROTOCOL_DEFINITION('International Standard','automotive_design',2001,#5);
#7=PRODUCT_CONTEXT('',#5,'mechanical');
#8=PRODUCT('51563','51563',$,(#7));
#9=PRODUCT_RELATED_PRODUCT_CATEGORY('part',$,(#8));
#10=PRODUCT_DEFINITION_FORMATION('',$,#8);
#11=PRODUCT_DEFINITION_CONTEXT('part definition',#5,'design');
#12=PRODUCT_DEFINITION('',$,#10,#11);
#18=(NAMED_UNIT(*)PLANE_ANGLE_UNIT()SI_UNIT($,.RADIAN.));
#19=DIMENSIONAL_EXPONENTS(0.0,0.0,0.0,0.0,0.0,0.0,0.0);
#20=PLANE_ANGLE_MEASURE_WITH_UNIT(PLANE_ANGLE_MEASURE(0.017453292500000),#18);
#24=(CONVERSION_BASED_UNIT('DEGREE',#20)NAMED_UNIT(#19)PLANE_ANGLE_UNIT());
#28=(NAMED_UNIT(*)SI_UNIT($,.STERADIAN.)SOLID_ANGLE_UNIT());
#32=(LENGTH_UNIT()NAMED_UNIT(*)SI_UNIT(.CENTI.,.METRE.));
#33=DIMENSIONAL_EXPONENTS(1.0,0.0,0.0,0.0,0.0,0.0,0.0);
#34=LENGTH_MEASURE_WITH_UNIT(LENGTH_MEASURE(2.540000000000000),#32);
#38=(CONVERSION_BASED_UNIT('INCH',#34)LENGTH_UNIT()NAMED_UNIT(#33));
#40=UNCERTAINTY_MEASURE_WITH_UNIT(LENGTH_MEASURE(0.000393700787402),#38,'DISTANCE_ACCURACY_VALUE','');
#42=(GEOMETRIC_REPRESENTATION_CONTEXT(3)GLOBAL_UNCERTAINTY_ASSIGNED_CONTEXT((#40))GLOBAL_UNIT_ASSIGNED_CONTEXT((#24,#28,#38))REPRESENTATION_CONTEXT('None','None'));
#43=AXIS2_PLACEMENT_3D('',#44,#45,#46);
#44=CARTESIAN_POINT('',(0.0,0.0,0.0));
#45=DIRECTION('',(0.0,0.0,1.0));
#46=DIRECTION('',(1.0,0.0,0.0));
#47=SHAPE_REPRESENTATION('',(#43),#42);
#48=PRODUCT_DEFINITION_SHAPE('','',#12);
#49=SHAPE_DEFINITION_REPRESENTATION(#48,#47);
#55=(NAMED_UNIT(*)PLANE_ANGLE_UNIT()SI_UNIT($,.RADIAN.));
#56=DIMENSIONAL_EXPONENTS(0.0,0.0,0.0,0.0,0.0,0.0,0.0);
#57=PLANE_ANGLE_MEASURE_WITH_UNIT(PLANE_ANGLE_MEASURE(0.017453292500000),#55);
#61=(CONVERSION_BASED_UNIT('DEGREE',#57)NAMED_UNIT(#56)PLANE_ANGLE_UNIT());
#65=(NAMED_UNIT(*)SI_UNIT($,.STERADIAN.)SOLID_ANGLE_UNIT());
#69=(LENGTH_UNIT()NAMED_UNIT(*)SI_UNIT(.MILLI.,.METRE.));
#71=UNCERTAINTY_MEASURE_WITH_UNIT(LENGTH_MEASURE(0.000001000000000),#69,'DISTANCE_ACCURACY_VALUE','');
#73=(GEOMETRIC_REPRESENTATION_CONTEXT(3)GLOBAL_UNCERTAINTY_ASSIGNED_CONTEXT((#71))GLOBAL_UNIT_ASSIGNED_CONTEXT((#61,#65,#69))REPRESENTATION_CONTEXT('','3D'));
#74=CARTESIAN_POINT('',(0.162125000000000,3.970786E-017,0.0));
#75=DIRECTION('',(1.0,2.449213E-016,0.0));
#76=DIRECTION('',(0.0,-1.0,0.0));
#77=AXIS2_PLACEMENT_3D('',#74,#75,#76);
#78=CONICAL_SURFACE('',#77,0.538043747686898,59.999999999999957);
#79=CARTESIAN_POINT('',(0.167000000000000,0.546487495373796,6.692321E-017));
#80=VERTEX_POINT('',#79);
#81=CARTESIAN_POINT('',(0.167000000000000,4.090185E-017,0.0));
#82=DIRECTION('',(1.0,0.0,0.0));
#83=DIRECTION('',(0.0,-1.0,0.0));
#84=AXIS2_PLACEMENT_3D('',#81,#82,#83);
#85=CIRCLE('',#84,0.546487495373796);
#86=EDGE_CURVE('',#80,#80,#85,.T.);
#87=ORIENTED_EDGE('',*,*,#86,.T.);
#88=EDGE_LOOP('',(#87));
#89=FACE_OUTER_BOUND('',#88,.T.);
#90=CARTESIAN_POINT('',(0.157250000000000,0.529600000000000,-6.485515E-017));
#91=VERTEX_POINT('',#90);
#92=CARTESIAN_POINT('',(0.157250000000000,3.851387E-017,0.0));
#93=DIRECTION('',(-1.0,0.0,0.0));
#94=DIRECTION('',(0.0,-1.0,0.0));
#95=AXIS2_PLACEMENT_3D('',#92,#93,#94);
#96=CIRCLE('',#95,0.529600000000000);
#97=EDGE_CURVE('',#91,#91,#96,.T.);
#98=ORIENTED_EDGE('',*,*,#97,.T.);
#99=EDGE_LOOP('',(#98));
#100=FACE_BOUND('',#99,.T.);
#101=ADVANCED_FACE('',(#89,#100),#78,.F.);
#102=CARTESIAN_POINT('',(0.083500000000000,2.045093E-017,0.0));
#103=DIRECTION('',(1.0,2.449213E-016,0.0));
#104=DIRECTION('',(0.0,1.0,0.0));
#105=AXIS2_PLACEMENT_3D('',#102,#103,#104);
#106=CYLINDRICAL_SURFACE('',#105,0.529600000000000);
#107=CARTESIAN_POINT('',(0.009750000000000,0.529600000000000,6.485515E-017));
#108=VERTEX_POINT('',#107);
#109=CARTESIAN_POINT('',(0.009750000000000,2.387982E-018,0.0));
#110=DIRECTION('',(1.0,0.0,0.0));
#111=DIRECTION('',(0.0,-1.0,0.0));
#112=AXIS2_PLACEMENT_3D('',#109,#110,#111);
#113=CIRCLE('',#112,0.529600000000000);
#114=EDGE_CURVE('',#108,#108,#113,.T.);
#115=ORIENTED_EDGE('',*,*,#114,.F.);
#116=EDGE_LOOP('',(#115));
#117=FACE_OUTER_BOUND('',#116,.T.);
#118=ORIENTED_EDGE('',*,*,#97,.F.);
#119=EDGE_LOOP('',(#118));
#120=FACE_BOUND('',#119,.T.);
#121=ADVANCED_FACE('',(#117,#120),#106,.F.);
#122=CARTESIAN_POINT('',(0.167000000000000,0.538050000000000,0.0));
#123=DIRECTION('',(1.0,0.0,0.0));
#124=DIRECTION('',(0.0,0.0,-1.0));
#125=AXIS2_PLACEMENT_3D('',#122,#123,#124);
#126=PLANE('',#125);
#127=CARTESIAN_POINT('',(0.167000000000000,0.546500000000000,0.0));
#128=VERTEX_POINT('',#127);
#129=CARTESIAN_POINT('',(0.167000000000000,4.090185E-017,0.0));
#130=DIRECTION('',(1.0,0.0,0.0));
#131=DIRECTION('',(0.0,1.0,0.0));
#132=AXIS2_PLACEMENT_3D('',#129,#130,#131);
#133=CIRCLE('',#132,0.546500000000000);
#134=EDGE_CURVE('',#128,#128,#133,.T.);
#135=ORIENTED_EDGE('',*,*,#134,.T.);
#136=EDGE_LOOP('',(#135));
#137=FACE_OUTER_BOUND('',#136,.T.);
#138=ORIENTED_EDGE('',*,*,#86,.F.);
#139=EDGE_LOOP('',(#138));
#140=FACE_BOUND('',#139,.T.);
#141=ADVANCED_FACE('',(#137,#140),#126,.T.);
#142=CARTESIAN_POINT('',(0.004875000000000,1.193991E-018,0.0));
#143=DIRECTION('',(-1.0,-2.449213E-016,0.0));
#144=DIRECTION('',(0.0,-1.0,0.0));
#145=AXIS2_PLACEMENT_3D('',#142,#143,#144);
#146=CONICAL_SURFACE('',#145,0.538043747686898,59.999999999999943);
#147=ORIENTED_EDGE('',*,*,#114,.T.);
#148=EDGE_LOOP('',(#147));
#149=FACE_OUTER_BOUND('',#148,.T.);
#150=CARTESIAN_POINT('',(7.104219E-017,0.546487495373796,-6.692321E-017));
#151=VERTEX_POINT('',#150);
#152=CARTESIAN_POINT('',(2.048886E-016,5.004385E-032,0.0));
#153=DIRECTION('',(-1.0,0.0,0.0));
#154=DIRECTION('',(0.0,-1.0,0.0));
#155=AXIS2_PLACEMENT_3D('',#152,#153,#154);
#156=CIRCLE('',#155,0.546487495373796);
#157=EDGE_CURVE('',#151,#151,#156,.T.);
#158=ORIENTED_EDGE('',*,*,#157,.T.);
#159=EDGE_LOOP('',(#158));
#160=FACE_BOUND('',#159,.T.);
#161=ADVANCED_FACE('',(#149,#160),#146,.F.);
#162=CARTESIAN_POINT('',(6.301848E-017,0.577300000000000,0.0));
#163=DIRECTION('',(-1.0,0.0,0.0));
#164=DIRECTION('',(0.0,0.0,1.0));
#165=AXIS2_PLACEMENT_3D('',#162,#163,#164);
#166=PLANE('',#165);
#167=CARTESIAN_POINT('',(1.205814E-016,0.625000000000000,0.0));
#168=VERTEX_POINT('',#167);
#169=CARTESIAN_POINT('',(2.736970E-016,6.702843E-032,0.0));
#170=DIRECTION('',(1.0,0.0,0.0));
#171=DIRECTION('',(0.0,1.0,0.0));
#172=AXIS2_PLACEMENT_3D('',#169,#170,#171);
#173=CIRCLE('',#172,0.625000000000000);
#174=EDGE_CURVE('',#168,#168,#173,.T.);
#175=ORIENTED_EDGE('',*,*,#174,.F.);
#176=EDGE_LOOP('',(#175));
#177=FACE_OUTER_BOUND('',#176,.T.);
#178=ORIENTED_EDGE('',*,*,#157,.F.);
#179=EDGE_LOOP('',(#178));
#180=FACE_BOUND('',#179,.T.);
#181=ADVANCED_FACE('',(#177,#180),#166,.T.);
#182=CARTESIAN_POINT('',(0.939500000000000,2.301035E-016,0.0));
#183=DIRECTION('',(-1.0,-2.449213E-016,0.0));
#184=DIRECTION('',(0.0,-1.0,0.0));
#185=AXIS2_PLACEMENT_3D('',#182,#183,#184);
#186=CONICAL_SURFACE('',#185,0.536973720558371,60.000000000000007);
#187=CARTESIAN_POINT('',(0.934000000000000,0.546500000000000,6.692474E-017));
#188=VERTEX_POINT('',#187);
#189=CARTESIAN_POINT('',(0.934000000000000,2.287565E-016,0.0));
#190=DIRECTION('',(1.0,0.0,0.0));
#191=DIRECTION('',(0.0,-1.0,0.0));
#192=AXIS2_PLACEMENT_3D('',#189,#190,#191);
#193=CIRCLE('',#192,0.546500000000000);
#194=EDGE_CURVE('',#188,#188,#193,.T.);
#195=ORIENTED_EDGE('',*,*,#194,.T.);
#196=EDGE_LOOP('',(#195));
#197=FACE_OUTER_BOUND('',#196,.T.);
#198=CARTESIAN_POINT('',(0.945000000000000,0.527447441116743,-6.459155E-017));
#199=VERTEX_POINT('',#198);
#200=CARTESIAN_POINT('',(0.945000000000000,2.314506E-016,0.0));
#201=DIRECTION('',(-1.0,0.0,0.0));
#202=DIRECTION('',(0.0,-1.0,0.0));
#203=AXIS2_PLACEMENT_3D('',#200,#201,#202);
#204=CIRCLE('',#203,0.527447441116743);
#205=EDGE_CURVE('',#199,#199,#204,.T.);
#206=ORIENTED_EDGE('',*,*,#205,.T.);
#207=EDGE_LOOP('',(#206));
#208=FACE_BOUND('',#207,.T.);
#209=ADVANCED_FACE('',(#197,#208),#186,.T.);
#210=CARTESIAN_POINT('',(0.882000000000000,2.160206E-016,0.0));
#211=DIRECTION('',(1.0,2.449213E-016,0.0));
#212=DIRECTION('',(0.0,1.0,0.0));
#213=AXIS2_PLACEMENT_3D('',#210,#211,#212);
#214=CYLINDRICAL_SURFACE('',#213,0.546500000000000);
#215=CARTESIAN_POINT('',(0.830000000000000,0.546500000000000,-6.692474E-017));
#216=VERTEX_POINT('',#215);
#217=CARTESIAN_POINT('',(0.830000000000000,2.032847E-016,0.0));
#218=DIRECTION('',(-1.0,0.0,0.0));
#219=DIRECTION('',(0.0,-1.0,0.0));
#220=AXIS2_PLACEMENT_3D('',#217,#218,#219);
#221=CIRCLE('',#220,0.546500000000000);
#222=EDGE_CURVE('',#216,#216,#221,.T.);
#223=ORIENTED_EDGE('',*,*,#222,.F.);
#224=EDGE_LOOP('',(#223));
#225=FACE_OUTER_BOUND('',#224,.T.);
#226=ORIENTED_EDGE('',*,*,#194,.F.);
#227=EDGE_LOOP('',(#226));
#228=FACE_BOUND('',#227,.T.);
#229=ADVANCED_FACE('',(#225,#228),#214,.T.);
#230=CARTESIAN_POINT('',(0.945000000000000,0.508250000000000,0.0));
#231=DIRECTION('',(1.0,0.0,0.0));
#232=DIRECTION('',(0.0,0.0,-1.0));
#233=AXIS2_PLACEMENT_3D('',#230,#231,#232);
#234=PLANE('',#233);
#235=ORIENTED_EDGE('',*,*,#205,.F.);
#236=EDGE_LOOP('',(#235));
#237=FACE_OUTER_BOUND('',#236,.T.);
#238=CARTESIAN_POINT('',(0.945000000000000,0.470000000000000,0.0));
#239=VERTEX_POINT('',#238);
#240=CARTESIAN_POINT('',(0.945000000000000,2.314506E-016,0.0));
#241=DIRECTION('',(1.0,0.0,0.0));
#242=DIRECTION('',(0.0,1.0,0.0));
#243=AXIS2_PLACEMENT_3D('',#240,#241,#242);
#244=CIRCLE('',#243,0.470000000000000);
#245=EDGE_CURVE('',#239,#239,#244,.T.);
#246=ORIENTED_EDGE('',*,*,#245,.F.);
#247=EDGE_LOOP('',(#246));
#248=FACE_BOUND('',#247,.T.);
#249=ADVANCED_FACE('',(#237,#248),#234,.T.);
#250=CARTESIAN_POINT('',(0.824500000000000,2.019376E-016,0.0));
#251=DIRECTION('',(1.0,2.449213E-016,0.0));
#252=DIRECTION('',(0.0,-1.0,0.0));
#253=AXIS2_PLACEMENT_3D('',#250,#251,#252);
#254=CONICAL_SURFACE('',#253,0.536973720558371,59.999999999999673);
#255=CARTESIAN_POINT('',(0.819000000000000,0.527447441116742,6.459155E-017));
#256=VERTEX_POINT('',#255);
#257=CARTESIAN_POINT('',(0.819000000000000,2.005905E-016,0.0));
#258=DIRECTION('',(1.0,0.0,0.0));
#259=DIRECTION('',(0.0,-1.0,0.0));
#260=AXIS2_PLACEMENT_3D('',#257,#258,#259);
#261=CIRCLE('',#260,0.527447441116742);
#262=EDGE_CURVE('',#256,#256,#261,.T.);
#263=ORIENTED_EDGE('',*,*,#262,.T.);
#264=EDGE_LOOP('',(#263));
#265=FACE_OUTER_BOUND('',#264,.T.);
#266=ORIENTED_EDGE('',*,*,#222,.T.);
#267=EDGE_LOOP('',(#266));
#268=FACE_BOUND('',#267,.T.);
#269=ADVANCED_FACE('',(#265,#268),#254,.T.);
#270=CARTESIAN_POINT('',(0.819000000000000,0.536350000000000,0.0));
#271=DIRECTION('',(-1.0,0.0,0.0));
#272=DIRECTION('',(0.0,0.0,1.0));
#273=AXIS2_PLACEMENT_3D('',#270,#271,#272);
#274=PLANE('',#273);
#275=ORIENTED_EDGE('',*,*,#262,.F.);
#276=EDGE_LOOP('',(#275));
#277=FACE_OUTER_BOUND('',#276,.T.);
#278=CARTESIAN_POINT('',(0.819000000000000,0.526200000000000,0.0));
#279=VERTEX_POINT('',#278);
#280=CARTESIAN_POINT('',(0.819000000000000,2.005905E-016,0.0));
#281=DIRECTION('',(1.0,0.0,0.0));
#282=DIRECTION('',(0.0,1.0,0.0));
#283=AXIS2_PLACEMENT_3D('',#280,#281,#282);
#284=CIRCLE('',#283,0.526200000000000);
#285=EDGE_CURVE('',#279,#279,#284,.T.);
#286=ORIENTED_EDGE('',*,*,#285,.T.);
#287=EDGE_LOOP('',(#286));
#288=FACE_BOUND('',#287,.T.);
#289=ADVANCED_FACE('',(#277,#288),#274,.T.);
#290=CARTESIAN_POINT('',(0.789000000000000,0.575600000000000,0.0));
#291=DIRECTION('',(1.0,0.0,0.0));
#292=DIRECTION('',(0.0,0.0,-1.0));
#293=AXIS2_PLACEMENT_3D('',#290,#291,#292);
#294=PLANE('',#293);
#295=CARTESIAN_POINT('',(0.789000000000000,0.625000000000000,0.0));
#296=VERTEX_POINT('',#295);
#297=CARTESIAN_POINT('',(0.789000000000000,1.932429E-016,0.0));
#298=DIRECTION('',(1.0,0.0,0.0));
#299=DIRECTION('',(0.0,1.0,0.0));
#300=AXIS2_PLACEMENT_3D('',#297,#298,#299);
#301=CIRCLE('',#300,0.625000000000000);
#302=EDGE_CURVE('',#296,#296,#301,.T.);
#303=ORIENTED_EDGE('',*,*,#302,.T.);
#304=EDGE_LOOP('',(#303));
#305=FACE_OUTER_BOUND('',#304,.T.);
#306=CARTESIAN_POINT('',(0.789000000000000,0.526200000000000,0.0));
#307=VERTEX_POINT('',#306);
#308=CARTESIAN_POINT('',(0.789000000000000,1.932429E-016,0.0));
#309=DIRECTION('',(1.0,0.0,0.0));
#310=DIRECTION('',(0.0,1.0,0.0));
#311=AXIS2_PLACEMENT_3D('',#308,#309,#310);
#312=CIRCLE('',#311,0.526200000000000);
#313=EDGE_CURVE('',#307,#307,#312,.T.);
#314=ORIENTED_EDGE('',*,*,#313,.F.);
#315=EDGE_LOOP('',(#314));
#316=FACE_BOUND('',#315,.T.);
#317=ADVANCED_FACE('',(#305,#316),#294,.T.);
#318=CARTESIAN_POINT('',(0.804000000000000,1.969167E-016,0.0));
#319=DIRECTION('',(1.0,2.449213E-016,0.0));
#320=DIRECTION('',(0.0,1.0,0.0));
#321=AXIS2_PLACEMENT_3D('',#318,#319,#320);
#322=CYLINDRICAL_SURFACE('',#321,0.526200000000000);
#323=ORIENTED_EDGE('',*,*,#285,.F.);
#324=EDGE_LOOP('',(#323));
#325=FACE_OUTER_BOUND('',#324,.T.);
#326=ORIENTED_EDGE('',*,*,#313,.T.);
#327=EDGE_LOOP('',(#326));
#328=FACE_BOUND('',#327,.T.);
#329=ADVANCED_FACE('',(#325,#328),#322,.T.);
#330=CARTESIAN_POINT('',(0.571000000000000,1.398500E-016,0.0));
#331=DIRECTION('',(1.0,2.449213E-016,0.0));
#332=DIRECTION('',(0.0,1.0,0.0));
#333=AXIS2_PLACEMENT_3D('',#330,#331,#332);
#334=CYLINDRICAL_SURFACE('',#333,0.470000000000000);
#335=CARTESIAN_POINT('',(0.197000000000000,0.470000000000000,0.0));
#336=VERTEX_POINT('',#335);
#337=CARTESIAN_POINT('',(0.197000000000000,4.824949E-017,0.0));
#338=DIRECTION('',(1.0,0.0,0.0));
#339=DIRECTION('',(0.0,1.0,0.0));
#340=AXIS2_PLACEMENT_3D('',#337,#338,#339);
#341=CIRCLE('',#340,0.470000000000000);
#342=EDGE_CURVE('',#336,#336,#341,.T.);
#343=ORIENTED_EDGE('',*,*,#342,.F.);
#344=EDGE_LOOP('',(#343));
#345=FACE_OUTER_BOUND('',#344,.T.);
#346=ORIENTED_EDGE('',*,*,#245,.T.);
#347=EDGE_LOOP('',(#346));
#348=FACE_BOUND('',#347,.T.);
#349=ADVANCED_FACE('',(#345,#348),#334,.F.);
#350=CARTESIAN_POINT('',(0.197000000000000,0.508250000000000,0.0));
#351=DIRECTION('',(-1.0,0.0,0.0));
#352=DIRECTION('',(0.0,0.0,1.0));
#353=AXIS2_PLACEMENT_3D('',#350,#351,#352);
#354=PLANE('',#353);
#355=CARTESIAN_POINT('',(0.197000000000000,0.546500000000000,0.0));
#356=VERTEX_POINT('',#355);
#357=CARTESIAN_POINT('',(0.197000000000000,4.824949E-017,0.0));
#358=DIRECTION('',(1.0,0.0,0.0));
#359=DIRECTION('',(0.0,1.0,0.0));
#360=AXIS2_PLACEMENT_3D('',#357,#358,#359);
#361=CIRCLE('',#360,0.546500000000000);
#362=EDGE_CURVE('',#356,#356,#361,.T.);
#363=ORIENTED_EDGE('',*,*,#362,.F.);
#364=EDGE_LOOP('',(#363));
#365=FACE_OUTER_BOUND('',#364,.T.);
#366=ORIENTED_EDGE('',*,*,#342,.T.);
#367=EDGE_LOOP('',(#366));
#368=FACE_BOUND('',#367,.T.);
#369=ADVANCED_FACE('',(#365,#368),#354,.T.);
#370=CARTESIAN_POINT('',(0.182000000000000,4.457567E-017,0.0));
#371=DIRECTION('',(1.0,2.449213E-016,0.0));
#372=DIRECTION('',(0.0,1.0,0.0));
#373=AXIS2_PLACEMENT_3D('',#370,#371,#372);
#374=CYLINDRICAL_SURFACE('',#373,0.546500000000000);
#375=ORIENTED_EDGE('',*,*,#134,.F.);
#376=EDGE_LOOP('',(#375));
#377=FACE_OUTER_BOUND('',#376,.T.);
#378=ORIENTED_EDGE('',*,*,#362,.T.);
#379=EDGE_LOOP('',(#378));
#380=FACE_BOUND('',#379,.T.);
#381=ADVANCED_FACE('',(#377,#380),#374,.F.);
#382=CARTESIAN_POINT('',(0.394500000000000,9.662144E-017,0.0));
#383=DIRECTION('',(1.0,2.449213E-016,0.0));
#384=DIRECTION('',(0.0,1.0,0.0));
#385=AXIS2_PLACEMENT_3D('',#382,#383,#384);
#386=CYLINDRICAL_SURFACE('',#385,0.625000000000000);
#387=ORIENTED_EDGE('',*,*,#302,.F.);
#388=EDGE_LOOP('',(#387));
#389=FACE_OUTER_BOUND('',#388,.T.);
#390=ORIENTED_EDGE('',*,*,#174,.T.);
#391=EDGE_LOOP('',(#390));
#392=FACE_BOUND('',#391,.T.);
#393=ADVANCED_FACE('',(#389,#392),#386,.T.);
#394=CLOSED_SHELL('',(#101,#121,#141,#161,#181,#209,#229,#249,#269,#289,#317,#329,#349,#369,#381,#393));
#395=MANIFOLD_SOLID_BREP('',#394);
#396=COLOUR_RGB('Metal-AL-6061 (AHC)',0.105881996452808,0.105881996452808,0.105881996452808);
#397=FILL_AREA_STYLE_COLOUR('Metal-AL-6061 (AHC)',#396);
#398=FILL_AREA_STYLE('Metal-AL-6061 (AHC)',(#397));
#399=SURFACE_STYLE_FILL_AREA(#398);
#400=SURFACE_SIDE_STYLE('Metal-AL-6061 (AHC)',(#399));
#401=SURFACE_STYLE_USAGE(.BOTH.,#400);
#402=PRESENTATION_STYLE_ASSIGNMENT((#401));
#403=STYLED_ITEM('',(#402),#395);
#404=MECHANICAL_DESIGN_GEOMETRIC_PRESENTATION_REPRESENTATION('',(#403),#42);
#405=ADVANCED_BREP_SHAPE_REPRESENTATION('ABSR',(#395),#42);
#406=SHAPE_REPRESENTATION_RELATIONSHIP('SRR','None',#405,#47);
ENDSEC;
END-ISO-10303-21;
