ISO-10303-21;
HEADER;
/* Generated by software containing ST-Developer
 * from STEP Tools, Inc. (www.steptools.com) 
 */

FILE_DESCRIPTION(
/* description */ (''),
/* implementation_level */ '2;1');

FILE_NAME(
/* name */ 
'C:\\Vault_Workspace\\Navitar_Vault\\Designs\\Engineering WIP\\40297.s
tp',
/* time_stamp */ '2018-02-27T08:04:43-05:00',
/* author */ ('BONAFEDE'),
/* organization */ ('NAVITAR'),
/* preprocessor_version */ 'ST-DEVELOPER v16.13',
/* originating_system */ 'Autodesk Inventor 2018',
/* authorisation */ '');

FILE_SCHEMA (('AUTOMOTIVE_DESIGN { 1 0 10303 214 3 1 1 }'));
ENDSEC;

DATA;
#10=MECHANICAL_DESIGN_GEOMETRIC_PRESENTATION_REPRESENTATION('',(#13),#683);
#11=SHAPE_REPRESENTATION_RELATIONSHIP('SRR','None',#693,#12);
#12=ADVANCED_BREP_SHAPE_REPRESENTATION('',(#369),#682);
#13=STYLED_ITEM('',(#702),#369);
#14=ORIENTED_CLOSED_SHELL('',*,#367,.F.);
#15=CYLINDRICAL_SURFACE('',#395,0.4206);
#16=CYLINDRICAL_SURFACE('',#398,0.4245);
#17=CYLINDRICAL_SURFACE('',#404,0.4125);
#18=CYLINDRICAL_SURFACE('',#408,0.44141);
#19=CYLINDRICAL_SURFACE('',#415,0.48254);
#20=CYLINDRICAL_SURFACE('',#419,0.49945);
#21=CYLINDRICAL_SURFACE('',#420,0.525);
#22=CYLINDRICAL_SURFACE('',#429,0.3706);
#23=CYLINDRICAL_SURFACE('',#433,0.4945);
#24=CYLINDRICAL_SURFACE('',#439,0.59);
#25=CYLINDRICAL_SURFACE('',#443,0.575);
#26=CYLINDRICAL_SURFACE('',#447,0.59);
#27=CYLINDRICAL_SURFACE('',#451,0.4375);
#28=CONICAL_SURFACE('',#392,0.42905,1.0471975511966);
#29=CONICAL_SURFACE('',#396,0.432955,1.0471975511966);
#30=CONICAL_SURFACE('',#399,0.490995,1.0471975511966);
#31=CONICAL_SURFACE('',#410,0.432955,1.0471975511966);
#32=CONICAL_SURFACE('',#417,0.490995,1.0471975511966);
#33=CONICAL_SURFACE('',#422,0.515,0.785398163397444);
#34=CONICAL_SURFACE('',#424,0.42905,1.0471975511966);
#35=CONICAL_SURFACE('',#435,0.467705080756888,0.26179938779915);
#36=CONICAL_SURFACE('',#449,0.58,0.78539816339745);
#37=FACE_BOUND('',#102,.T.);
#38=FACE_BOUND('',#104,.T.);
#39=FACE_BOUND('',#106,.T.);
#40=FACE_BOUND('',#108,.T.);
#41=FACE_BOUND('',#110,.T.);
#42=FACE_BOUND('',#112,.T.);
#43=FACE_BOUND('',#114,.T.);
#44=FACE_BOUND('',#116,.T.);
#45=FACE_BOUND('',#118,.T.);
#46=FACE_BOUND('',#120,.T.);
#47=FACE_BOUND('',#122,.T.);
#48=FACE_BOUND('',#124,.T.);
#49=FACE_BOUND('',#126,.T.);
#50=FACE_BOUND('',#128,.T.);
#51=FACE_BOUND('',#130,.T.);
#52=FACE_BOUND('',#132,.T.);
#53=FACE_BOUND('',#134,.T.);
#54=FACE_BOUND('',#136,.T.);
#55=FACE_BOUND('',#138,.T.);
#56=FACE_BOUND('',#140,.T.);
#57=FACE_BOUND('',#142,.T.);
#58=FACE_BOUND('',#144,.T.);
#59=FACE_BOUND('',#146,.T.);
#60=FACE_BOUND('',#148,.T.);
#61=FACE_BOUND('',#150,.T.);
#62=FACE_BOUND('',#152,.T.);
#63=FACE_BOUND('',#154,.T.);
#64=FACE_BOUND('',#156,.T.);
#65=FACE_BOUND('',#158,.T.);
#66=FACE_BOUND('',#160,.T.);
#67=FACE_BOUND('',#162,.T.);
#68=FACE_BOUND('',#164,.T.);
#69=FACE_OUTER_BOUND('',#101,.T.);
#70=FACE_OUTER_BOUND('',#103,.T.);
#71=FACE_OUTER_BOUND('',#105,.T.);
#72=FACE_OUTER_BOUND('',#107,.T.);
#73=FACE_OUTER_BOUND('',#109,.T.);
#74=FACE_OUTER_BOUND('',#111,.T.);
#75=FACE_OUTER_BOUND('',#113,.T.);
#76=FACE_OUTER_BOUND('',#115,.T.);
#77=FACE_OUTER_BOUND('',#117,.T.);
#78=FACE_OUTER_BOUND('',#119,.T.);
#79=FACE_OUTER_BOUND('',#121,.T.);
#80=FACE_OUTER_BOUND('',#123,.T.);
#81=FACE_OUTER_BOUND('',#125,.T.);
#82=FACE_OUTER_BOUND('',#127,.T.);
#83=FACE_OUTER_BOUND('',#129,.T.);
#84=FACE_OUTER_BOUND('',#131,.T.);
#85=FACE_OUTER_BOUND('',#133,.T.);
#86=FACE_OUTER_BOUND('',#135,.T.);
#87=FACE_OUTER_BOUND('',#137,.T.);
#88=FACE_OUTER_BOUND('',#139,.T.);
#89=FACE_OUTER_BOUND('',#141,.T.);
#90=FACE_OUTER_BOUND('',#143,.T.);
#91=FACE_OUTER_BOUND('',#145,.T.);
#92=FACE_OUTER_BOUND('',#147,.T.);
#93=FACE_OUTER_BOUND('',#149,.T.);
#94=FACE_OUTER_BOUND('',#151,.T.);
#95=FACE_OUTER_BOUND('',#153,.T.);
#96=FACE_OUTER_BOUND('',#155,.T.);
#97=FACE_OUTER_BOUND('',#157,.T.);
#98=FACE_OUTER_BOUND('',#159,.T.);
#99=FACE_OUTER_BOUND('',#161,.T.);
#100=FACE_OUTER_BOUND('',#163,.T.);
#101=EDGE_LOOP('',(#261));
#102=EDGE_LOOP('',(#262));
#103=EDGE_LOOP('',(#263));
#104=EDGE_LOOP('',(#264));
#105=EDGE_LOOP('',(#265));
#106=EDGE_LOOP('',(#266));
#107=EDGE_LOOP('',(#267));
#108=EDGE_LOOP('',(#268));
#109=EDGE_LOOP('',(#269));
#110=EDGE_LOOP('',(#270));
#111=EDGE_LOOP('',(#271));
#112=EDGE_LOOP('',(#272));
#113=EDGE_LOOP('',(#273));
#114=EDGE_LOOP('',(#274));
#115=EDGE_LOOP('',(#275));
#116=EDGE_LOOP('',(#276));
#117=EDGE_LOOP('',(#277));
#118=EDGE_LOOP('',(#278));
#119=EDGE_LOOP('',(#279));
#120=EDGE_LOOP('',(#280));
#121=EDGE_LOOP('',(#281));
#122=EDGE_LOOP('',(#282));
#123=EDGE_LOOP('',(#283));
#124=EDGE_LOOP('',(#284));
#125=EDGE_LOOP('',(#285));
#126=EDGE_LOOP('',(#286));
#127=EDGE_LOOP('',(#287));
#128=EDGE_LOOP('',(#288));
#129=EDGE_LOOP('',(#289));
#130=EDGE_LOOP('',(#290));
#131=EDGE_LOOP('',(#291));
#132=EDGE_LOOP('',(#292));
#133=EDGE_LOOP('',(#293));
#134=EDGE_LOOP('',(#294));
#135=EDGE_LOOP('',(#295));
#136=EDGE_LOOP('',(#296));
#137=EDGE_LOOP('',(#297));
#138=EDGE_LOOP('',(#298));
#139=EDGE_LOOP('',(#299));
#140=EDGE_LOOP('',(#300));
#141=EDGE_LOOP('',(#301));
#142=EDGE_LOOP('',(#302));
#143=EDGE_LOOP('',(#303));
#144=EDGE_LOOP('',(#304));
#145=EDGE_LOOP('',(#305));
#146=EDGE_LOOP('',(#306));
#147=EDGE_LOOP('',(#307));
#148=EDGE_LOOP('',(#308));
#149=EDGE_LOOP('',(#309));
#150=EDGE_LOOP('',(#310));
#151=EDGE_LOOP('',(#311));
#152=EDGE_LOOP('',(#312));
#153=EDGE_LOOP('',(#313));
#154=EDGE_LOOP('',(#314));
#155=EDGE_LOOP('',(#315));
#156=EDGE_LOOP('',(#316));
#157=EDGE_LOOP('',(#317));
#158=EDGE_LOOP('',(#318));
#159=EDGE_LOOP('',(#319));
#160=EDGE_LOOP('',(#320));
#161=EDGE_LOOP('',(#321));
#162=EDGE_LOOP('',(#322));
#163=EDGE_LOOP('',(#323));
#164=EDGE_LOOP('',(#324));
#165=CIRCLE('',#390,0.44141);
#166=CIRCLE('',#391,0.4206);
#167=CIRCLE('',#393,0.4206);
#168=CIRCLE('',#394,0.4245);
#169=CIRCLE('',#397,0.4245);
#170=CIRCLE('',#400,0.49945);
#171=CIRCLE('',#401,0.48254);
#172=CIRCLE('',#403,0.4125);
#173=CIRCLE('',#405,0.4125);
#174=CIRCLE('',#407,0.44141);
#175=CIRCLE('',#409,0.44141);
#176=CIRCLE('',#411,0.4375);
#177=CIRCLE('',#413,0.525);
#178=CIRCLE('',#414,0.48254);
#179=CIRCLE('',#416,0.48254);
#180=CIRCLE('',#418,0.49945);
#181=CIRCLE('',#421,0.525);
#182=CIRCLE('',#423,0.505);
#183=CIRCLE('',#425,0.4375);
#184=CIRCLE('',#426,0.4206);
#185=CIRCLE('',#428,0.3706);
#186=CIRCLE('',#430,0.3706);
#187=CIRCLE('',#432,0.4945);
#188=CIRCLE('',#434,0.4945);
#189=CIRCLE('',#436,0.440910161513775);
#190=CIRCLE('',#438,0.59);
#191=CIRCLE('',#440,0.59);
#192=CIRCLE('',#442,0.575);
#193=CIRCLE('',#444,0.575);
#194=CIRCLE('',#446,0.59);
#195=CIRCLE('',#448,0.59);
#196=CIRCLE('',#450,0.57);
#197=VERTEX_POINT('',#585);
#198=VERTEX_POINT('',#587);
#199=VERTEX_POINT('',#590);
#200=VERTEX_POINT('',#592);
#201=VERTEX_POINT('',#596);
#202=VERTEX_POINT('',#600);
#203=VERTEX_POINT('',#602);
#204=VERTEX_POINT('',#605);
#205=VERTEX_POINT('',#608);
#206=VERTEX_POINT('',#611);
#207=VERTEX_POINT('',#614);
#208=VERTEX_POINT('',#617);
#209=VERTEX_POINT('',#620);
#210=VERTEX_POINT('',#622);
#211=VERTEX_POINT('',#625);
#212=VERTEX_POINT('',#628);
#213=VERTEX_POINT('',#632);
#214=VERTEX_POINT('',#635);
#215=VERTEX_POINT('',#638);
#216=VERTEX_POINT('',#640);
#217=VERTEX_POINT('',#643);
#218=VERTEX_POINT('',#646);
#219=VERTEX_POINT('',#649);
#220=VERTEX_POINT('',#652);
#221=VERTEX_POINT('',#655);
#222=VERTEX_POINT('',#658);
#223=VERTEX_POINT('',#661);
#224=VERTEX_POINT('',#664);
#225=VERTEX_POINT('',#667);
#226=VERTEX_POINT('',#670);
#227=VERTEX_POINT('',#673);
#228=VERTEX_POINT('',#676);
#229=EDGE_CURVE('',#197,#197,#165,.T.);
#230=EDGE_CURVE('',#198,#198,#166,.T.);
#231=EDGE_CURVE('',#199,#199,#167,.T.);
#232=EDGE_CURVE('',#200,#200,#168,.T.);
#233=EDGE_CURVE('',#201,#201,#169,.T.);
#234=EDGE_CURVE('',#202,#202,#170,.T.);
#235=EDGE_CURVE('',#203,#203,#171,.T.);
#236=EDGE_CURVE('',#204,#204,#172,.T.);
#237=EDGE_CURVE('',#205,#205,#173,.T.);
#238=EDGE_CURVE('',#206,#206,#174,.T.);
#239=EDGE_CURVE('',#207,#207,#175,.T.);
#240=EDGE_CURVE('',#208,#208,#176,.T.);
#241=EDGE_CURVE('',#209,#209,#177,.T.);
#242=EDGE_CURVE('',#210,#210,#178,.T.);
#243=EDGE_CURVE('',#211,#211,#179,.T.);
#244=EDGE_CURVE('',#212,#212,#180,.T.);
#245=EDGE_CURVE('',#213,#213,#181,.T.);
#246=EDGE_CURVE('',#214,#214,#182,.T.);
#247=EDGE_CURVE('',#215,#215,#183,.T.);
#248=EDGE_CURVE('',#216,#216,#184,.T.);
#249=EDGE_CURVE('',#217,#217,#185,.T.);
#250=EDGE_CURVE('',#218,#218,#186,.T.);
#251=EDGE_CURVE('',#219,#219,#187,.T.);
#252=EDGE_CURVE('',#220,#220,#188,.T.);
#253=EDGE_CURVE('',#221,#221,#189,.T.);
#254=EDGE_CURVE('',#222,#222,#190,.T.);
#255=EDGE_CURVE('',#223,#223,#191,.T.);
#256=EDGE_CURVE('',#224,#224,#192,.T.);
#257=EDGE_CURVE('',#225,#225,#193,.T.);
#258=EDGE_CURVE('',#226,#226,#194,.T.);
#259=EDGE_CURVE('',#227,#227,#195,.T.);
#260=EDGE_CURVE('',#228,#228,#196,.T.);
#261=ORIENTED_EDGE('',*,*,#229,.F.);
#262=ORIENTED_EDGE('',*,*,#230,.T.);
#263=ORIENTED_EDGE('',*,*,#231,.F.);
#264=ORIENTED_EDGE('',*,*,#232,.F.);
#265=ORIENTED_EDGE('',*,*,#230,.F.);
#266=ORIENTED_EDGE('',*,*,#231,.T.);
#267=ORIENTED_EDGE('',*,*,#233,.F.);
#268=ORIENTED_EDGE('',*,*,#229,.T.);
#269=ORIENTED_EDGE('',*,*,#232,.T.);
#270=ORIENTED_EDGE('',*,*,#233,.T.);
#271=ORIENTED_EDGE('',*,*,#234,.F.);
#272=ORIENTED_EDGE('',*,*,#235,.T.);
#273=ORIENTED_EDGE('',*,*,#235,.F.);
#274=ORIENTED_EDGE('',*,*,#236,.T.);
#275=ORIENTED_EDGE('',*,*,#236,.F.);
#276=ORIENTED_EDGE('',*,*,#237,.T.);
#277=ORIENTED_EDGE('',*,*,#238,.T.);
#278=ORIENTED_EDGE('',*,*,#237,.F.);
#279=ORIENTED_EDGE('',*,*,#238,.F.);
#280=ORIENTED_EDGE('',*,*,#239,.T.);
#281=ORIENTED_EDGE('',*,*,#240,.T.);
#282=ORIENTED_EDGE('',*,*,#239,.F.);
#283=ORIENTED_EDGE('',*,*,#241,.F.);
#284=ORIENTED_EDGE('',*,*,#242,.T.);
#285=ORIENTED_EDGE('',*,*,#242,.F.);
#286=ORIENTED_EDGE('',*,*,#243,.T.);
#287=ORIENTED_EDGE('',*,*,#243,.F.);
#288=ORIENTED_EDGE('',*,*,#244,.T.);
#289=ORIENTED_EDGE('',*,*,#244,.F.);
#290=ORIENTED_EDGE('',*,*,#234,.T.);
#291=ORIENTED_EDGE('',*,*,#241,.T.);
#292=ORIENTED_EDGE('',*,*,#245,.F.);
#293=ORIENTED_EDGE('',*,*,#245,.T.);
#294=ORIENTED_EDGE('',*,*,#246,.T.);
#295=ORIENTED_EDGE('',*,*,#247,.F.);
#296=ORIENTED_EDGE('',*,*,#248,.T.);
#297=ORIENTED_EDGE('',*,*,#248,.F.);
#298=ORIENTED_EDGE('',*,*,#249,.T.);
#299=ORIENTED_EDGE('',*,*,#249,.F.);
#300=ORIENTED_EDGE('',*,*,#250,.T.);
#301=ORIENTED_EDGE('',*,*,#251,.T.);
#302=ORIENTED_EDGE('',*,*,#250,.F.);
#303=ORIENTED_EDGE('',*,*,#251,.F.);
#304=ORIENTED_EDGE('',*,*,#252,.T.);
#305=ORIENTED_EDGE('',*,*,#252,.F.);
#306=ORIENTED_EDGE('',*,*,#253,.T.);
#307=ORIENTED_EDGE('',*,*,#254,.T.);
#308=ORIENTED_EDGE('',*,*,#253,.F.);
#309=ORIENTED_EDGE('',*,*,#254,.F.);
#310=ORIENTED_EDGE('',*,*,#255,.T.);
#311=ORIENTED_EDGE('',*,*,#255,.F.);
#312=ORIENTED_EDGE('',*,*,#256,.T.);
#313=ORIENTED_EDGE('',*,*,#256,.F.);
#314=ORIENTED_EDGE('',*,*,#257,.T.);
#315=ORIENTED_EDGE('',*,*,#258,.T.);
#316=ORIENTED_EDGE('',*,*,#257,.F.);
#317=ORIENTED_EDGE('',*,*,#258,.F.);
#318=ORIENTED_EDGE('',*,*,#259,.F.);
#319=ORIENTED_EDGE('',*,*,#260,.T.);
#320=ORIENTED_EDGE('',*,*,#259,.T.);
#321=ORIENTED_EDGE('',*,*,#247,.T.);
#322=ORIENTED_EDGE('',*,*,#240,.F.);
#323=ORIENTED_EDGE('',*,*,#260,.F.);
#324=ORIENTED_EDGE('',*,*,#246,.F.);
#325=PLANE('',#389);
#326=PLANE('',#402);
#327=PLANE('',#406);
#328=PLANE('',#412);
#329=PLANE('',#427);
#330=PLANE('',#431);
#331=PLANE('',#437);
#332=PLANE('',#441);
#333=PLANE('',#445);
#334=PLANE('',#452);
#335=ADVANCED_FACE('',(#69,#37),#325,.T.);
#336=ADVANCED_FACE('',(#70,#38),#28,.T.);
#337=ADVANCED_FACE('',(#71,#39),#15,.T.);
#338=ADVANCED_FACE('',(#72,#40),#29,.F.);
#339=ADVANCED_FACE('',(#73,#41),#16,.F.);
#340=ADVANCED_FACE('',(#74,#42),#30,.T.);
#341=ADVANCED_FACE('',(#75,#43),#326,.T.);
#342=ADVANCED_FACE('',(#76,#44),#17,.F.);
#343=ADVANCED_FACE('',(#77,#45),#327,.T.);
#344=ADVANCED_FACE('',(#78,#46),#18,.F.);
#345=ADVANCED_FACE('',(#79,#47),#31,.F.);
#346=ADVANCED_FACE('',(#80,#48),#328,.T.);
#347=ADVANCED_FACE('',(#81,#49),#19,.T.);
#348=ADVANCED_FACE('',(#82,#50),#32,.T.);
#349=ADVANCED_FACE('',(#83,#51),#20,.T.);
#350=ADVANCED_FACE('',(#84,#52),#21,.T.);
#351=ADVANCED_FACE('',(#85,#53),#33,.T.);
#352=ADVANCED_FACE('',(#86,#54),#34,.T.);
#353=ADVANCED_FACE('',(#87,#55),#329,.T.);
#354=ADVANCED_FACE('',(#88,#56),#22,.F.);
#355=ADVANCED_FACE('',(#89,#57),#330,.T.);
#356=ADVANCED_FACE('',(#90,#58),#23,.T.);
#357=ADVANCED_FACE('',(#91,#59),#35,.T.);
#358=ADVANCED_FACE('',(#92,#60),#331,.T.);
#359=ADVANCED_FACE('',(#93,#61),#24,.T.);
#360=ADVANCED_FACE('',(#94,#62),#332,.T.);
#361=ADVANCED_FACE('',(#95,#63),#25,.T.);
#362=ADVANCED_FACE('',(#96,#64),#333,.T.);
#363=ADVANCED_FACE('',(#97,#65),#26,.T.);
#364=ADVANCED_FACE('',(#98,#66),#36,.T.);
#365=ADVANCED_FACE('',(#99,#67),#27,.T.);
#366=ADVANCED_FACE('',(#100,#68),#334,.T.);
#367=CLOSED_SHELL('',(#335,#336,#337,#338,#339));
#368=CLOSED_SHELL('',(#340,#341,#342,#343,#344,#345,#346,#347,#348,#349,
#350,#351,#352,#353,#354,#355,#356,#357,#358,#359,#360,#361,#362,#363,#364,
#365,#366));
#369=BREP_WITH_VOIDS('Solid1',#368,(#14));
#370=DERIVED_UNIT_ELEMENT(#372,1.);
#371=DERIVED_UNIT_ELEMENT(#687,3.);
#372=(
MASS_UNIT()
NAMED_UNIT(*)
SI_UNIT($,.GRAM.)
);
#373=DERIVED_UNIT((#370,#371));
#374=MEASURE_REPRESENTATION_ITEM('density measure',
POSITIVE_RATIO_MEASURE(2.71),#373);
#375=PROPERTY_DEFINITION_REPRESENTATION(#380,#377);
#376=PROPERTY_DEFINITION_REPRESENTATION(#381,#378);
#377=REPRESENTATION('material name',(#379),#682);
#378=REPRESENTATION('density',(#374),#682);
#379=DESCRIPTIVE_REPRESENTATION_ITEM('Aluminum-6061-T6',
'Aluminum-6061-T6');
#380=PROPERTY_DEFINITION('material property','material name',#695);
#381=PROPERTY_DEFINITION('material property','density of part',#695);
#382=DATE_TIME_ROLE('creation_date');
#383=APPLIED_DATE_AND_TIME_ASSIGNMENT(#384,#382,(#695));
#384=DATE_AND_TIME(#385,#386);
#385=CALENDAR_DATE(2018,27,2);
#386=LOCAL_TIME(13,2,49.,#387);
#387=COORDINATED_UNIVERSAL_TIME_OFFSET(0,0,.BEHIND.);
#388=AXIS2_PLACEMENT_3D('placement',#583,#453,#454);
#389=AXIS2_PLACEMENT_3D('',#584,#455,#456);
#390=AXIS2_PLACEMENT_3D('',#586,#457,#458);
#391=AXIS2_PLACEMENT_3D('',#588,#459,#460);
#392=AXIS2_PLACEMENT_3D('',#589,#461,#462);
#393=AXIS2_PLACEMENT_3D('',#591,#463,#464);
#394=AXIS2_PLACEMENT_3D('',#593,#465,#466);
#395=AXIS2_PLACEMENT_3D('',#594,#467,#468);
#396=AXIS2_PLACEMENT_3D('',#595,#469,#470);
#397=AXIS2_PLACEMENT_3D('',#597,#471,#472);
#398=AXIS2_PLACEMENT_3D('',#598,#473,#474);
#399=AXIS2_PLACEMENT_3D('',#599,#475,#476);
#400=AXIS2_PLACEMENT_3D('',#601,#477,#478);
#401=AXIS2_PLACEMENT_3D('',#603,#479,#480);
#402=AXIS2_PLACEMENT_3D('',#604,#481,#482);
#403=AXIS2_PLACEMENT_3D('',#606,#483,#484);
#404=AXIS2_PLACEMENT_3D('',#607,#485,#486);
#405=AXIS2_PLACEMENT_3D('',#609,#487,#488);
#406=AXIS2_PLACEMENT_3D('',#610,#489,#490);
#407=AXIS2_PLACEMENT_3D('',#612,#491,#492);
#408=AXIS2_PLACEMENT_3D('',#613,#493,#494);
#409=AXIS2_PLACEMENT_3D('',#615,#495,#496);
#410=AXIS2_PLACEMENT_3D('',#616,#497,#498);
#411=AXIS2_PLACEMENT_3D('',#618,#499,#500);
#412=AXIS2_PLACEMENT_3D('',#619,#501,#502);
#413=AXIS2_PLACEMENT_3D('',#621,#503,#504);
#414=AXIS2_PLACEMENT_3D('',#623,#505,#506);
#415=AXIS2_PLACEMENT_3D('',#624,#507,#508);
#416=AXIS2_PLACEMENT_3D('',#626,#509,#510);
#417=AXIS2_PLACEMENT_3D('',#627,#511,#512);
#418=AXIS2_PLACEMENT_3D('',#629,#513,#514);
#419=AXIS2_PLACEMENT_3D('',#630,#515,#516);
#420=AXIS2_PLACEMENT_3D('',#631,#517,#518);
#421=AXIS2_PLACEMENT_3D('',#633,#519,#520);
#422=AXIS2_PLACEMENT_3D('',#634,#521,#522);
#423=AXIS2_PLACEMENT_3D('',#636,#523,#524);
#424=AXIS2_PLACEMENT_3D('',#637,#525,#526);
#425=AXIS2_PLACEMENT_3D('',#639,#527,#528);
#426=AXIS2_PLACEMENT_3D('',#641,#529,#530);
#427=AXIS2_PLACEMENT_3D('',#642,#531,#532);
#428=AXIS2_PLACEMENT_3D('',#644,#533,#534);
#429=AXIS2_PLACEMENT_3D('',#645,#535,#536);
#430=AXIS2_PLACEMENT_3D('',#647,#537,#538);
#431=AXIS2_PLACEMENT_3D('',#648,#539,#540);
#432=AXIS2_PLACEMENT_3D('',#650,#541,#542);
#433=AXIS2_PLACEMENT_3D('',#651,#543,#544);
#434=AXIS2_PLACEMENT_3D('',#653,#545,#546);
#435=AXIS2_PLACEMENT_3D('',#654,#547,#548);
#436=AXIS2_PLACEMENT_3D('',#656,#549,#550);
#437=AXIS2_PLACEMENT_3D('',#657,#551,#552);
#438=AXIS2_PLACEMENT_3D('',#659,#553,#554);
#439=AXIS2_PLACEMENT_3D('',#660,#555,#556);
#440=AXIS2_PLACEMENT_3D('',#662,#557,#558);
#441=AXIS2_PLACEMENT_3D('',#663,#559,#560);
#442=AXIS2_PLACEMENT_3D('',#665,#561,#562);
#443=AXIS2_PLACEMENT_3D('',#666,#563,#564);
#444=AXIS2_PLACEMENT_3D('',#668,#565,#566);
#445=AXIS2_PLACEMENT_3D('',#669,#567,#568);
#446=AXIS2_PLACEMENT_3D('',#671,#569,#570);
#447=AXIS2_PLACEMENT_3D('',#672,#571,#572);
#448=AXIS2_PLACEMENT_3D('',#674,#573,#574);
#449=AXIS2_PLACEMENT_3D('',#675,#575,#576);
#450=AXIS2_PLACEMENT_3D('',#677,#577,#578);
#451=AXIS2_PLACEMENT_3D('',#678,#579,#580);
#452=AXIS2_PLACEMENT_3D('',#679,#581,#582);
#453=DIRECTION('axis',(0.,0.,1.));
#454=DIRECTION('refdir',(1.,0.,0.));
#455=DIRECTION('center_axis',(-1.,0.,0.));
#456=DIRECTION('ref_axis',(0.,0.,1.));
#457=DIRECTION('center_axis',(1.,0.,0.));
#458=DIRECTION('ref_axis',(0.,0.,1.));
#459=DIRECTION('center_axis',(1.,0.,0.));
#460=DIRECTION('ref_axis',(0.,1.,0.));
#461=DIRECTION('center_axis',(-1.,0.,0.));
#462=DIRECTION('ref_axis',(0.,1.,0.));
#463=DIRECTION('center_axis',(1.,0.,0.));
#464=DIRECTION('ref_axis',(0.,1.,0.));
#465=DIRECTION('center_axis',(-1.,0.,0.));
#466=DIRECTION('ref_axis',(0.,-1.,0.));
#467=DIRECTION('center_axis',(1.,0.,0.));
#468=DIRECTION('ref_axis',(0.,1.,0.));
#469=DIRECTION('center_axis',(1.,0.,0.));
#470=DIRECTION('ref_axis',(0.,-1.,0.));
#471=DIRECTION('center_axis',(1.,0.,0.));
#472=DIRECTION('ref_axis',(0.,0.,1.));
#473=DIRECTION('center_axis',(1.,0.,0.));
#474=DIRECTION('ref_axis',(0.,-1.,0.));
#475=DIRECTION('center_axis',(1.,0.,0.));
#476=DIRECTION('ref_axis',(0.,-1.,0.));
#477=DIRECTION('center_axis',(1.,0.,0.));
#478=DIRECTION('ref_axis',(0.,0.,1.));
#479=DIRECTION('center_axis',(1.,0.,0.));
#480=DIRECTION('ref_axis',(0.,0.,1.));
#481=DIRECTION('center_axis',(-1.,0.,0.));
#482=DIRECTION('ref_axis',(0.,0.,-1.));
#483=DIRECTION('center_axis',(1.,0.,0.));
#484=DIRECTION('ref_axis',(0.,0.,1.));
#485=DIRECTION('center_axis',(1.,0.,0.));
#486=DIRECTION('ref_axis',(0.,-1.,0.));
#487=DIRECTION('center_axis',(1.,0.,0.));
#488=DIRECTION('ref_axis',(0.,0.,1.));
#489=DIRECTION('center_axis',(1.,0.,0.));
#490=DIRECTION('ref_axis',(0.,0.,1.));
#491=DIRECTION('center_axis',(1.,0.,0.));
#492=DIRECTION('ref_axis',(0.,0.,1.));
#493=DIRECTION('center_axis',(1.,0.,0.));
#494=DIRECTION('ref_axis',(0.,-1.,0.));
#495=DIRECTION('center_axis',(1.,0.,0.));
#496=DIRECTION('ref_axis',(0.,0.,1.));
#497=DIRECTION('center_axis',(-1.,0.,0.));
#498=DIRECTION('ref_axis',(0.,-1.,0.));
#499=DIRECTION('center_axis',(1.,0.,0.));
#500=DIRECTION('ref_axis',(0.,1.,0.));
#501=DIRECTION('center_axis',(-1.,0.,0.));
#502=DIRECTION('ref_axis',(0.,0.,-1.));
#503=DIRECTION('center_axis',(1.,0.,0.));
#504=DIRECTION('ref_axis',(0.,0.,1.));
#505=DIRECTION('center_axis',(1.,0.,0.));
#506=DIRECTION('ref_axis',(0.,0.,1.));
#507=DIRECTION('center_axis',(1.,0.,0.));
#508=DIRECTION('ref_axis',(0.,-1.,0.));
#509=DIRECTION('center_axis',(1.,0.,0.));
#510=DIRECTION('ref_axis',(0.,0.,1.));
#511=DIRECTION('center_axis',(-1.,0.,0.));
#512=DIRECTION('ref_axis',(0.,-1.,0.));
#513=DIRECTION('center_axis',(1.,0.,0.));
#514=DIRECTION('ref_axis',(0.,0.,1.));
#515=DIRECTION('center_axis',(1.,0.,0.));
#516=DIRECTION('ref_axis',(0.,-1.,0.));
#517=DIRECTION('center_axis',(1.,0.,0.));
#518=DIRECTION('ref_axis',(0.,-1.,0.));
#519=DIRECTION('center_axis',(1.,0.,0.));
#520=DIRECTION('ref_axis',(0.,1.,0.));
#521=DIRECTION('center_axis',(-1.,0.,0.));
#522=DIRECTION('ref_axis',(0.,1.,0.));
#523=DIRECTION('center_axis',(-1.,0.,0.));
#524=DIRECTION('ref_axis',(0.,1.,0.));
#525=DIRECTION('center_axis',(1.,0.,0.));
#526=DIRECTION('ref_axis',(0.,1.,0.));
#527=DIRECTION('center_axis',(1.,0.,0.));
#528=DIRECTION('ref_axis',(0.,1.,0.));
#529=DIRECTION('center_axis',(1.,0.,0.));
#530=DIRECTION('ref_axis',(0.,1.,0.));
#531=DIRECTION('center_axis',(-1.,0.,0.));
#532=DIRECTION('ref_axis',(0.,0.,1.));
#533=DIRECTION('center_axis',(1.,0.,0.));
#534=DIRECTION('ref_axis',(0.,1.,0.));
#535=DIRECTION('center_axis',(1.,0.,0.));
#536=DIRECTION('ref_axis',(0.,1.,0.));
#537=DIRECTION('center_axis',(1.,0.,0.));
#538=DIRECTION('ref_axis',(0.,1.,0.));
#539=DIRECTION('center_axis',(1.,0.,0.));
#540=DIRECTION('ref_axis',(0.,0.,-1.));
#541=DIRECTION('center_axis',(1.,0.,0.));
#542=DIRECTION('ref_axis',(0.,1.,0.));
#543=DIRECTION('center_axis',(1.,0.,0.));
#544=DIRECTION('ref_axis',(0.,1.,0.));
#545=DIRECTION('center_axis',(1.,0.,0.));
#546=DIRECTION('ref_axis',(0.,1.,0.));
#547=DIRECTION('center_axis',(1.,0.,0.));
#548=DIRECTION('ref_axis',(0.,1.,0.));
#549=DIRECTION('center_axis',(1.,0.,0.));
#550=DIRECTION('ref_axis',(0.,1.,0.));
#551=DIRECTION('center_axis',(1.,0.,0.));
#552=DIRECTION('ref_axis',(0.,0.,-1.));
#553=DIRECTION('center_axis',(1.,0.,0.));
#554=DIRECTION('ref_axis',(0.,1.,0.));
#555=DIRECTION('center_axis',(1.,0.,0.));
#556=DIRECTION('ref_axis',(0.,1.,0.));
#557=DIRECTION('center_axis',(1.,0.,0.));
#558=DIRECTION('ref_axis',(0.,1.,0.));
#559=DIRECTION('center_axis',(-1.,0.,0.));
#560=DIRECTION('ref_axis',(0.,0.,1.));
#561=DIRECTION('center_axis',(1.,0.,0.));
#562=DIRECTION('ref_axis',(0.,1.,0.));
#563=DIRECTION('center_axis',(1.,0.,0.));
#564=DIRECTION('ref_axis',(0.,1.,0.));
#565=DIRECTION('center_axis',(1.,0.,0.));
#566=DIRECTION('ref_axis',(0.,1.,0.));
#567=DIRECTION('center_axis',(1.,0.,0.));
#568=DIRECTION('ref_axis',(0.,0.,-1.));
#569=DIRECTION('center_axis',(1.,0.,0.));
#570=DIRECTION('ref_axis',(0.,1.,0.));
#571=DIRECTION('center_axis',(1.,0.,0.));
#572=DIRECTION('ref_axis',(0.,1.,0.));
#573=DIRECTION('center_axis',(-1.,0.,0.));
#574=DIRECTION('ref_axis',(0.,-1.,0.));
#575=DIRECTION('center_axis',(1.,0.,0.));
#576=DIRECTION('ref_axis',(0.,-1.,0.));
#577=DIRECTION('center_axis',(1.,0.,0.));
#578=DIRECTION('ref_axis',(0.,-1.,0.));
#579=DIRECTION('center_axis',(1.,0.,0.));
#580=DIRECTION('ref_axis',(0.,1.,0.));
#581=DIRECTION('center_axis',(-1.,0.,0.));
#582=DIRECTION('ref_axis',(0.,0.,1.));
#583=CARTESIAN_POINT('',(0.,0.,0.));
#584=CARTESIAN_POINT('Origin',(0.7,0.5053,0.));
#585=CARTESIAN_POINT('',(0.7,-0.44141,0.));
#586=CARTESIAN_POINT('Origin',(0.7,0.,0.));
#587=CARTESIAN_POINT('',(0.7,0.4206,0.));
#588=CARTESIAN_POINT('Origin',(0.7,0.,0.));
#589=CARTESIAN_POINT('Origin',(0.657978609774652,0.,0.));
#590=CARTESIAN_POINT('',(0.662857219549304,0.4206,0.));
#591=CARTESIAN_POINT('Origin',(0.662857219549304,0.,0.));
#592=CARTESIAN_POINT('',(0.660605553499465,0.4245,-5.19862566238051E-17));
#593=CARTESIAN_POINT('Origin',(0.660605553499465,0.,0.));
#594=CARTESIAN_POINT('Origin',(0.681428609774652,0.,0.));
#595=CARTESIAN_POINT('Origin',(0.695118503474002,0.,0.));
#596=CARTESIAN_POINT('',(0.690237006948003,-0.4245,0.));
#597=CARTESIAN_POINT('Origin',(0.690237006948003,0.,0.));
#598=CARTESIAN_POINT('Origin',(0.60345,0.,0.));
#599=CARTESIAN_POINT('Origin',(0.00488149652599829,0.,0.));
#600=CARTESIAN_POINT('',(0.00976299305199658,-0.49945,0.));
#601=CARTESIAN_POINT('Origin',(0.00976299305199658,0.,0.));
#602=CARTESIAN_POINT('',(0.,-0.48254,0.));
#603=CARTESIAN_POINT('Origin',(0.,0.,0.));
#604=CARTESIAN_POINT('Origin',(0.,-0.48254,0.));
#605=CARTESIAN_POINT('',(0.,-0.4125,0.));
#606=CARTESIAN_POINT('Origin',(0.,0.,0.));
#607=CARTESIAN_POINT('Origin',(0.23,0.,0.));
#608=CARTESIAN_POINT('',(0.46,-0.4125,0.));
#609=CARTESIAN_POINT('Origin',(0.46,0.,0.));
#610=CARTESIAN_POINT('Origin',(0.46,-0.4125,0.));
#611=CARTESIAN_POINT('',(0.46,-0.44141,0.));
#612=CARTESIAN_POINT('Origin',(0.46,0.,0.));
#613=CARTESIAN_POINT('Origin',(0.48345,0.,0.));
#614=CARTESIAN_POINT('',(0.5069,-0.44141,0.));
#615=CARTESIAN_POINT('Origin',(0.5069,0.,0.));
#616=CARTESIAN_POINT('Origin',(0.511781496525998,0.,0.));
#617=CARTESIAN_POINT('',(0.509157439552531,-0.4375,-5.35782974626967E-17));
#618=CARTESIAN_POINT('Origin',(0.509157439552531,0.,0.));
#619=CARTESIAN_POINT('Origin',(0.122,-0.525,0.));
#620=CARTESIAN_POINT('',(0.122,-0.525,0.));
#621=CARTESIAN_POINT('Origin',(0.122,0.,0.));
#622=CARTESIAN_POINT('',(0.122,-0.48254,0.));
#623=CARTESIAN_POINT('Origin',(0.122,0.,0.));
#624=CARTESIAN_POINT('Origin',(0.09855,0.,0.));
#625=CARTESIAN_POINT('',(0.0751,-0.48254,0.));
#626=CARTESIAN_POINT('Origin',(0.0751,0.,0.));
#627=CARTESIAN_POINT('Origin',(0.0702185034740017,0.,0.));
#628=CARTESIAN_POINT('',(0.0653370069480034,-0.49945,0.));
#629=CARTESIAN_POINT('Origin',(0.0653370069480034,0.,0.));
#630=CARTESIAN_POINT('Origin',(0.03755,0.,0.));
#631=CARTESIAN_POINT('Origin',(0.411,0.,0.));
#632=CARTESIAN_POINT('',(0.68,-0.525,-6.4293956955236E-17));
#633=CARTESIAN_POINT('Origin',(0.68,0.,0.));
#634=CARTESIAN_POINT('Origin',(0.69,0.,0.));
#635=CARTESIAN_POINT('',(0.7,-0.505,6.18446633569413E-17));
#636=CARTESIAN_POINT('Origin',(0.7,0.,0.));
#637=CARTESIAN_POINT('Origin',(0.484878609774652,0.,0.));
#638=CARTESIAN_POINT('',(0.489757219549305,0.4375,0.));
#639=CARTESIAN_POINT('Origin',(0.489757219549305,0.,0.));
#640=CARTESIAN_POINT('',(0.48,0.4206,0.));
#641=CARTESIAN_POINT('Origin',(0.48,0.,0.));
#642=CARTESIAN_POINT('Origin',(0.48,0.3956,0.));
#643=CARTESIAN_POINT('',(0.48,0.3706,0.));
#644=CARTESIAN_POINT('Origin',(0.48,0.,0.));
#645=CARTESIAN_POINT('Origin',(0.861220472440945,0.,0.));
#646=CARTESIAN_POINT('',(1.24244094488189,0.3706,0.));
#647=CARTESIAN_POINT('Origin',(1.24244094488189,0.,0.));
#648=CARTESIAN_POINT('Origin',(1.24244094488189,0.43255,0.));
#649=CARTESIAN_POINT('',(1.24244094488189,0.4945,0.));
#650=CARTESIAN_POINT('Origin',(1.24244094488189,0.,0.));
#651=CARTESIAN_POINT('Origin',(1.21744094488189,0.,0.));
#652=CARTESIAN_POINT('',(1.19244094488189,0.4945,0.));
#653=CARTESIAN_POINT('Origin',(1.19244094488189,0.,0.));
#654=CARTESIAN_POINT('Origin',(1.09244094488189,0.,0.));
#655=CARTESIAN_POINT('',(0.99244094488189,0.440910161513775,0.));
#656=CARTESIAN_POINT('Origin',(0.99244094488189,0.,0.));
#657=CARTESIAN_POINT('Origin',(0.99244094488189,0.515455080756888,0.));
#658=CARTESIAN_POINT('',(0.99244094488189,0.59,0.));
#659=CARTESIAN_POINT('Origin',(0.99244094488189,0.,0.));
#660=CARTESIAN_POINT('Origin',(0.974220472440945,0.,0.));
#661=CARTESIAN_POINT('',(0.956,0.59,0.));
#662=CARTESIAN_POINT('Origin',(0.956,0.,0.));
#663=CARTESIAN_POINT('Origin',(0.956,0.5825,0.));
#664=CARTESIAN_POINT('',(0.956,0.575,0.));
#665=CARTESIAN_POINT('Origin',(0.956,0.,0.));
#666=CARTESIAN_POINT('Origin',(0.846,0.,0.));
#667=CARTESIAN_POINT('',(0.736,0.575,0.));
#668=CARTESIAN_POINT('Origin',(0.736,0.,0.));
#669=CARTESIAN_POINT('Origin',(0.736,0.5825,0.));
#670=CARTESIAN_POINT('',(0.736,0.59,0.));
#671=CARTESIAN_POINT('Origin',(0.736,0.,0.));
#672=CARTESIAN_POINT('Origin',(0.718,0.,0.));
#673=CARTESIAN_POINT('',(0.72,0.59,-7.22541611496938E-17));
#674=CARTESIAN_POINT('Origin',(0.72,0.,0.));
#675=CARTESIAN_POINT('Origin',(0.71,0.,0.));
#676=CARTESIAN_POINT('',(0.7,0.57,6.98048675513991E-17));
#677=CARTESIAN_POINT('Origin',(0.7,0.,0.));
#678=CARTESIAN_POINT('Origin',(0.571428609774652,0.,0.));
#679=CARTESIAN_POINT('Origin',(0.7,0.5053,0.));
#680=UNCERTAINTY_MEASURE_WITH_UNIT(LENGTH_MEASURE(0.000393700787401575),
#685,'DISTANCE_ACCURACY_VALUE',
'Maximum model space distance between geometric entities at asserted c
onnectivities');
#681=UNCERTAINTY_MEASURE_WITH_UNIT(LENGTH_MEASURE(0.000393700787401575),
#685,'DISTANCE_ACCURACY_VALUE',
'Maximum model space distance between geometric entities at asserted c
onnectivities');
#682=(
GEOMETRIC_REPRESENTATION_CONTEXT(3)
GLOBAL_UNCERTAINTY_ASSIGNED_CONTEXT((#680))
GLOBAL_UNIT_ASSIGNED_CONTEXT((#685,#690,#689))
REPRESENTATION_CONTEXT('','3D')
);
#683=(
GEOMETRIC_REPRESENTATION_CONTEXT(3)
GLOBAL_UNCERTAINTY_ASSIGNED_CONTEXT((#681))
GLOBAL_UNIT_ASSIGNED_CONTEXT((#685,#690,#689))
REPRESENTATION_CONTEXT('','3D')
);
#684=DIMENSIONAL_EXPONENTS(1.,0.,0.,0.,0.,0.,0.);
#685=(
CONVERSION_BASED_UNIT('inch',#688)
LENGTH_UNIT()
NAMED_UNIT(#684)
);
#686=(
LENGTH_UNIT()
NAMED_UNIT(*)
SI_UNIT(.MILLI.,.METRE.)
);
#687=(
LENGTH_UNIT()
NAMED_UNIT(*)
SI_UNIT(.CENTI.,.METRE.)
);
#688=LENGTH_MEASURE_WITH_UNIT(LENGTH_MEASURE(25.4),#686);
#689=(
NAMED_UNIT(*)
SI_UNIT($,.STERADIAN.)
SOLID_ANGLE_UNIT()
);
#690=(
NAMED_UNIT(*)
PLANE_ANGLE_UNIT()
SI_UNIT($,.RADIAN.)
);
#691=SHAPE_DEFINITION_REPRESENTATION(#692,#693);
#692=PRODUCT_DEFINITION_SHAPE('',$,#695);
#693=SHAPE_REPRESENTATION('',(#388),#682);
#694=PRODUCT_DEFINITION_CONTEXT('part definition',#699,'design');
#695=PRODUCT_DEFINITION('Part1','Part1',#696,#694);
#696=PRODUCT_DEFINITION_FORMATION('A',$,#701);
#697=PRODUCT_RELATED_PRODUCT_CATEGORY('Part1','Part1',(#701));
#698=APPLICATION_PROTOCOL_DEFINITION('international standard',
'automotive_design',2009,#699);
#699=APPLICATION_CONTEXT(
'Core Data for Automotive Mechanical Design Process');
#700=PRODUCT_CONTEXT('part definition',#699,'mechanical');
#701=PRODUCT('Part1','Part1',$,(#700));
#702=PRESENTATION_STYLE_ASSIGNMENT((#703));
#703=SURFACE_STYLE_USAGE(.BOTH.,#704);
#704=SURFACE_SIDE_STYLE('',(#705));
#705=SURFACE_STYLE_FILL_AREA(#706);
#706=FILL_AREA_STYLE('',(#707));
#707=FILL_AREA_STYLE_COLOUR('',#708);
#708=COLOUR_RGB('',0.0509803921568627,0.0509803921568627,0.0509803921568627);
ENDSEC;
END-ISO-10303-21;
