ISO-10303-21;
HEADER;
/****************************************************************
 * Generated by software with PDE/Lib inside                    *
 * PDElib Version v51a, created Thu 01/14/2010                  *
 * ITI Transcendata (http://www.transcendata.com/)              *
 ****************************************************************/
FILE_DESCRIPTION((''),'2;1');
FILE_NAME('\\\\ZION\\Public\\Engineering_Drawings\\_40k\\40049_0.stp','2011-08-02T08:16:08',('Boggio'),(''),'Autodesk Inventor 2011','Autodesk Inventor 2011','');
FILE_SCHEMA(('AUTOMOTIVE_DESIGN { 1 0 10303 214 1 1 1 1 }'));
ENDSEC;
DATA;
#5=APPLICATION_CONTEXT('automotive design');
#6=APPLICATION_PROTOCOL_DEFINITION('International Standard','automotive_design',2001,#5);
#7=PRODUCT_CONTEXT('',#5,'mechanical');
#8=PRODUCT('40049_Shrinkwrap_1','40049_Shrinkwrap_1',$,(#7));
#9=PRODUCT_RELATED_PRODUCT_CATEGORY('part',$,(#8));
#10=PRODUCT_DEFINITION_FORMATION('',$,#8);
#11=PRODUCT_DEFINITION_CONTEXT('part definition',#5,'design');
#12=PRODUCT_DEFINITION('',$,#10,#11);
#18=(NAMED_UNIT(*)PLANE_ANGLE_UNIT()SI_UNIT($,.RADIAN.));
#19=DIMENSIONAL_EXPONENTS(0.0,0.0,0.0,0.0,0.0,0.0,0.0);
#20=PLANE_ANGLE_MEASURE_WITH_UNIT(PLANE_ANGLE_MEASURE(0.017453292500000),#18);
#24=(CONVERSION_BASED_UNIT('DEGREE',#20)NAMED_UNIT(#19)PLANE_ANGLE_UNIT());
#28=(NAMED_UNIT(*)SI_UNIT($,.STERADIAN.)SOLID_ANGLE_UNIT());
#32=(LENGTH_UNIT()NAMED_UNIT(*)SI_UNIT(.CENTI.,.METRE.));
#33=DIMENSIONAL_EXPONENTS(1.0,0.0,0.0,0.0,0.0,0.0,0.0);
#34=LENGTH_MEASURE_WITH_UNIT(LENGTH_MEASURE(2.540000000000000),#32);
#38=(CONVERSION_BASED_UNIT('INCH',#34)LENGTH_UNIT()NAMED_UNIT(#33));
#40=UNCERTAINTY_MEASURE_WITH_UNIT(LENGTH_MEASURE(0.000393700787402),#38,'DISTANCE_ACCURACY_VALUE','');
#42=(GEOMETRIC_REPRESENTATION_CONTEXT(3)GLOBAL_UNCERTAINTY_ASSIGNED_CONTEXT((#40))GLOBAL_UNIT_ASSIGNED_CONTEXT((#24,#28,#38))REPRESENTATION_CONTEXT('None','None'));
#43=AXIS2_PLACEMENT_3D('',#44,#45,#46);
#44=CARTESIAN_POINT('',(0.0,0.0,0.0));
#45=DIRECTION('',(0.0,0.0,1.0));
#46=DIRECTION('',(1.0,0.0,0.0));
#47=SHAPE_REPRESENTATION('',(#43),#42);
#48=PRODUCT_DEFINITION_SHAPE('','',#12);
#49=SHAPE_DEFINITION_REPRESENTATION(#48,#47);
#55=(NAMED_UNIT(*)PLANE_ANGLE_UNIT()SI_UNIT($,.RADIAN.));
#56=DIMENSIONAL_EXPONENTS(0.0,0.0,0.0,0.0,0.0,0.0,0.0);
#57=PLANE_ANGLE_MEASURE_WITH_UNIT(PLANE_ANGLE_MEASURE(0.017453292500000),#55);
#61=(CONVERSION_BASED_UNIT('DEGREE',#57)NAMED_UNIT(#56)PLANE_ANGLE_UNIT());
#65=(NAMED_UNIT(*)SI_UNIT($,.STERADIAN.)SOLID_ANGLE_UNIT());
#69=(LENGTH_UNIT()NAMED_UNIT(*)SI_UNIT(.MILLI.,.METRE.));
#71=UNCERTAINTY_MEASURE_WITH_UNIT(LENGTH_MEASURE(0.000001000000000),#69,'DISTANCE_ACCURACY_VALUE','');
#73=(GEOMETRIC_REPRESENTATION_CONTEXT(3)GLOBAL_UNCERTAINTY_ASSIGNED_CONTEXT((#71))GLOBAL_UNIT_ASSIGNED_CONTEXT((#61,#65,#69))REPRESENTATION_CONTEXT('','3D'));
#74=CARTESIAN_POINT('',(0.881992125984252,0.453000000000000,0.0));
#75=DIRECTION('',(-1.0,0.0,0.0));
#76=DIRECTION('',(0.0,0.0,1.0));
#77=AXIS2_PLACEMENT_3D('',#74,#75,#76);
#78=PLANE('',#77);
#79=CARTESIAN_POINT('',(0.881992125984252,0.465000000000000,5.694608E-017));
#80=VERTEX_POINT('',#79);
#81=CARTESIAN_POINT('',(0.881992125984252,0.0,0.0));
#82=DIRECTION('',(1.0,0.0,0.0));
#83=DIRECTION('',(0.0,-1.0,0.0));
#84=AXIS2_PLACEMENT_3D('',#81,#82,#83);
#85=CIRCLE('',#84,0.465000000000000);
#86=EDGE_CURVE('',#80,#80,#85,.T.);
#87=ORIENTED_EDGE('',*,*,#86,.F.);
#88=EDGE_LOOP('',(#87));
#89=FACE_OUTER_BOUND('',#88,.T.);
#90=CARTESIAN_POINT('',(0.881992125984252,-0.437500000000000,5.357830E-017));
#91=VERTEX_POINT('',#90);
#92=CARTESIAN_POINT('',(0.881992125984252,0.0,0.0));
#93=DIRECTION('',(-1.0,0.0,0.0));
#94=DIRECTION('',(0.0,1.0,0.0));
#95=AXIS2_PLACEMENT_3D('',#92,#93,#94);
#96=CIRCLE('',#95,0.437500000000000);
#97=EDGE_CURVE('',#91,#91,#96,.T.);
#98=ORIENTED_EDGE('',*,*,#97,.F.);
#99=EDGE_LOOP('',(#98));
#100=FACE_BOUND('',#99,.T.);
#101=ADVANCED_FACE('',(#89,#100),#78,.T.);
#102=CARTESIAN_POINT('',(1.541992125984252,0.383000000000000,0.0));
#103=DIRECTION('',(1.0,0.0,0.0));
#104=DIRECTION('',(0.0,0.0,-1.0));
#105=AXIS2_PLACEMENT_3D('',#102,#103,#104);
#106=PLANE('',#105);
#107=CARTESIAN_POINT('',(1.541992125984252,0.390411542731880,-4.781162E-017));
#108=VERTEX_POINT('',#107);
#109=CARTESIAN_POINT('',(1.541992125984252,0.0,0.0));
#110=DIRECTION('',(-1.0,0.0,0.0));
#111=DIRECTION('',(0.0,-1.0,0.0));
#112=AXIS2_PLACEMENT_3D('',#109,#110,#111);
#113=CIRCLE('',#112,0.390411542731880);
#114=EDGE_CURVE('',#108,#108,#113,.T.);
#115=ORIENTED_EDGE('',*,*,#114,.F.);
#116=EDGE_LOOP('',(#115));
#117=FACE_OUTER_BOUND('',#116,.T.);
#118=ADVANCED_FACE('',(#117),#106,.T.);
#119=CARTESIAN_POINT('',(1.451492125984252,0.0,0.0));
#120=DIRECTION('',(1.0,0.0,0.0));
#121=DIRECTION('',(0.0,-1.0,0.0));
#122=AXIS2_PLACEMENT_3D('',#119,#120,#121);
#123=CONICAL_SURFACE('',#122,0.398205771365940,59.999999999999993);
#124=CARTESIAN_POINT('',(1.455992125984252,0.406000000000000,-4.972066E-017));
#125=VERTEX_POINT('',#124);
#126=CARTESIAN_POINT('',(1.455992125984252,0.0,0.0));
#127=DIRECTION('',(-1.0,0.0,0.0));
#128=DIRECTION('',(0.0,-1.0,0.0));
#129=AXIS2_PLACEMENT_3D('',#126,#127,#128);
#130=CIRCLE('',#129,0.406000000000000);
#131=EDGE_CURVE('',#125,#125,#130,.T.);
#132=ORIENTED_EDGE('',*,*,#131,.T.);
#133=EDGE_LOOP('',(#132));
#134=FACE_OUTER_BOUND('',#133,.T.);
#135=CARTESIAN_POINT('',(1.446992125984252,0.390411542731880,4.781162E-017));
#136=VERTEX_POINT('',#135);
#137=CARTESIAN_POINT('',(1.446992125984252,0.0,0.0));
#138=DIRECTION('',(1.0,0.0,0.0));
#139=DIRECTION('',(0.0,-1.0,0.0));
#140=AXIS2_PLACEMENT_3D('',#137,#138,#139);
#141=CIRCLE('',#140,0.390411542731880);
#142=EDGE_CURVE('',#136,#136,#141,.T.);
#143=ORIENTED_EDGE('',*,*,#142,.T.);
#144=EDGE_LOOP('',(#143));
#145=FACE_BOUND('',#144,.T.);
#146=ADVANCED_FACE('',(#134,#145),#123,.T.);
#147=CARTESIAN_POINT('',(1.494492125984252,0.0,0.0));
#148=DIRECTION('',(-1.0,0.0,0.0));
#149=DIRECTION('',(0.0,1.0,0.0));
#150=AXIS2_PLACEMENT_3D('',#147,#148,#149);
#151=CYLINDRICAL_SURFACE('',#150,0.406000000000000);
#152=CARTESIAN_POINT('',(1.532992125984252,0.406000000000000,4.972066E-017));
#153=VERTEX_POINT('',#152);
#154=CARTESIAN_POINT('',(1.532992125984252,0.0,0.0));
#155=DIRECTION('',(1.0,0.0,0.0));
#156=DIRECTION('',(0.0,-1.0,0.0));
#157=AXIS2_PLACEMENT_3D('',#154,#155,#156);
#158=CIRCLE('',#157,0.406000000000000);
#159=EDGE_CURVE('',#153,#153,#158,.T.);
#160=ORIENTED_EDGE('',*,*,#159,.F.);
#161=EDGE_LOOP('',(#160));
#162=FACE_OUTER_BOUND('',#161,.T.);
#163=ORIENTED_EDGE('',*,*,#131,.F.);
#164=EDGE_LOOP('',(#163));
#165=FACE_BOUND('',#164,.T.);
#166=ADVANCED_FACE('',(#162,#165),#151,.T.);
#167=CARTESIAN_POINT('',(1.446992125984252,0.396000000000000,0.0));
#168=DIRECTION('',(-1.0,0.0,0.0));
#169=DIRECTION('',(0.0,0.0,1.0));
#170=AXIS2_PLACEMENT_3D('',#167,#168,#169);
#171=PLANE('',#170);
#172=ORIENTED_EDGE('',*,*,#142,.F.);
#173=EDGE_LOOP('',(#172));
#174=FACE_OUTER_BOUND('',#173,.T.);
#175=CARTESIAN_POINT('',(1.446992125984252,0.386000000000000,0.0));
#176=VERTEX_POINT('',#175);
#177=CARTESIAN_POINT('',(1.446992125984252,0.0,0.0));
#178=DIRECTION('',(-1.0,0.0,0.0));
#179=DIRECTION('',(0.0,1.0,0.0));
#180=AXIS2_PLACEMENT_3D('',#177,#178,#179);
#181=CIRCLE('',#180,0.386000000000000);
#182=EDGE_CURVE('',#176,#176,#181,.T.);
#183=ORIENTED_EDGE('',*,*,#182,.F.);
#184=EDGE_LOOP('',(#183));
#185=FACE_BOUND('',#184,.T.);
#186=ADVANCED_FACE('',(#174,#185),#171,.T.);
#187=CARTESIAN_POINT('',(1.537492125984252,0.0,0.0));
#188=DIRECTION('',(-1.0,0.0,0.0));
#189=DIRECTION('',(0.0,-1.0,0.0));
#190=AXIS2_PLACEMENT_3D('',#187,#188,#189);
#191=CONICAL_SURFACE('',#190,0.398205771365940,59.999999999999993);
#192=ORIENTED_EDGE('',*,*,#114,.T.);
#193=EDGE_LOOP('',(#192));
#194=FACE_OUTER_BOUND('',#193,.T.);
#195=ORIENTED_EDGE('',*,*,#159,.T.);
#196=EDGE_LOOP('',(#195));
#197=FACE_BOUND('',#196,.T.);
#198=ADVANCED_FACE('',(#194,#197),#191,.T.);
#199=CARTESIAN_POINT('',(1.191992125984252,0.0,0.0));
#200=DIRECTION('',(-1.0,0.0,0.0));
#201=DIRECTION('',(0.0,-1.0,0.0));
#202=AXIS2_PLACEMENT_3D('',#199,#200,#201);
#203=CONICAL_SURFACE('',#202,0.475000000000000,45.000000000000121);
#204=CARTESIAN_POINT('',(1.201992125984252,0.465000000000000,-5.694608E-017));
#205=VERTEX_POINT('',#204);
#206=CARTESIAN_POINT('',(1.201992125984252,0.0,0.0));
#207=DIRECTION('',(-1.0,0.0,0.0));
#208=DIRECTION('',(0.0,-1.0,0.0));
#209=AXIS2_PLACEMENT_3D('',#206,#207,#208);
#210=CIRCLE('',#209,0.465000000000000);
#211=EDGE_CURVE('',#205,#205,#210,.T.);
#212=ORIENTED_EDGE('',*,*,#211,.T.);
#213=EDGE_LOOP('',(#212));
#214=FACE_OUTER_BOUND('',#213,.T.);
#215=CARTESIAN_POINT('',(1.181992125984252,0.485000000000000,5.939537E-017));
#216=VERTEX_POINT('',#215);
#217=CARTESIAN_POINT('',(1.181992125984252,0.0,0.0));
#218=DIRECTION('',(1.0,0.0,0.0));
#219=DIRECTION('',(0.0,-1.0,0.0));
#220=AXIS2_PLACEMENT_3D('',#217,#218,#219);
#221=CIRCLE('',#220,0.485000000000000);
#222=EDGE_CURVE('',#216,#216,#221,.T.);
#223=ORIENTED_EDGE('',*,*,#222,.T.);
#224=EDGE_LOOP('',(#223));
#225=FACE_BOUND('',#224,.T.);
#226=ADVANCED_FACE('',(#214,#225),#203,.T.);
#227=CARTESIAN_POINT('',(1.041992125984252,0.0,0.0));
#228=DIRECTION('',(-1.0,0.0,0.0));
#229=DIRECTION('',(0.0,1.0,0.0));
#230=AXIS2_PLACEMENT_3D('',#227,#228,#229);
#231=CYLINDRICAL_SURFACE('',#230,0.485000000000000);
#232=CARTESIAN_POINT('',(0.901992125984252,0.485000000000000,-5.939537E-017));
#233=VERTEX_POINT('',#232);
#234=CARTESIAN_POINT('',(0.901992125984252,0.0,0.0));
#235=DIRECTION('',(-1.0,0.0,0.0));
#236=DIRECTION('',(0.0,-1.0,0.0));
#237=AXIS2_PLACEMENT_3D('',#234,#235,#236);
#238=CIRCLE('',#237,0.485000000000000);
#239=EDGE_CURVE('',#233,#233,#238,.T.);
#240=ORIENTED_EDGE('',*,*,#239,.F.);
#241=EDGE_LOOP('',(#240));
#242=FACE_OUTER_BOUND('',#241,.T.);
#243=ORIENTED_EDGE('',*,*,#222,.F.);
#244=EDGE_LOOP('',(#243));
#245=FACE_BOUND('',#244,.T.);
#246=ADVANCED_FACE('',(#242,#245),#231,.T.);
#247=CARTESIAN_POINT('',(1.201992125984252,0.461250000000000,0.0));
#248=DIRECTION('',(1.0,0.0,0.0));
#249=DIRECTION('',(0.0,0.0,-1.0));
#250=AXIS2_PLACEMENT_3D('',#247,#248,#249);
#251=PLANE('',#250);
#252=ORIENTED_EDGE('',*,*,#211,.F.);
#253=EDGE_LOOP('',(#252));
#254=FACE_OUTER_BOUND('',#253,.T.);
#255=CARTESIAN_POINT('',(1.201992125984252,0.437500000000000,0.0));
#256=VERTEX_POINT('',#255);
#257=CARTESIAN_POINT('',(1.201992125984252,0.0,0.0));
#258=DIRECTION('',(-1.0,0.0,0.0));
#259=DIRECTION('',(0.0,1.0,0.0));
#260=AXIS2_PLACEMENT_3D('',#257,#258,#259);
#261=CIRCLE('',#260,0.437500000000000);
#262=EDGE_CURVE('',#256,#256,#261,.T.);
#263=ORIENTED_EDGE('',*,*,#262,.T.);
#264=EDGE_LOOP('',(#263));
#265=FACE_BOUND('',#264,.T.);
#266=ADVANCED_FACE('',(#254,#265),#251,.T.);
#267=CARTESIAN_POINT('',(0.891992125984252,0.0,0.0));
#268=DIRECTION('',(1.0,0.0,0.0));
#269=DIRECTION('',(0.0,-1.0,0.0));
#270=AXIS2_PLACEMENT_3D('',#267,#268,#269);
#271=CONICAL_SURFACE('',#270,0.475000000000000,44.999999999999993);
#272=ORIENTED_EDGE('',*,*,#239,.T.);
#273=EDGE_LOOP('',(#272));
#274=FACE_OUTER_BOUND('',#273,.T.);
#275=ORIENTED_EDGE('',*,*,#86,.T.);
#276=EDGE_LOOP('',(#275));
#277=FACE_BOUND('',#276,.T.);
#278=ADVANCED_FACE('',(#274,#277),#271,.T.);
#279=CARTESIAN_POINT('',(1.431992125984252,0.0,0.0));
#280=DIRECTION('',(-1.0,0.0,0.0));
#281=DIRECTION('',(0.0,1.0,0.0));
#282=AXIS2_PLACEMENT_3D('',#279,#280,#281);
#283=CYLINDRICAL_SURFACE('',#282,0.386000000000000);
#284=CARTESIAN_POINT('',(1.416992125984252,0.386000000000000,0.0));
#285=VERTEX_POINT('',#284);
#286=CARTESIAN_POINT('',(1.416992125984252,0.0,0.0));
#287=DIRECTION('',(-1.0,0.0,0.0));
#288=DIRECTION('',(0.0,1.0,0.0));
#289=AXIS2_PLACEMENT_3D('',#286,#287,#288);
#290=CIRCLE('',#289,0.386000000000000);
#291=EDGE_CURVE('',#285,#285,#290,.T.);
#292=ORIENTED_EDGE('',*,*,#291,.F.);
#293=EDGE_LOOP('',(#292));
#294=FACE_OUTER_BOUND('',#293,.T.);
#295=ORIENTED_EDGE('',*,*,#182,.T.);
#296=EDGE_LOOP('',(#295));
#297=FACE_BOUND('',#296,.T.);
#298=ADVANCED_FACE('',(#294,#297),#283,.T.);
#299=CARTESIAN_POINT('',(1.416992125984252,0.411750000000000,0.0));
#300=DIRECTION('',(1.0,0.0,0.0));
#301=DIRECTION('',(0.0,0.0,-1.0));
#302=AXIS2_PLACEMENT_3D('',#299,#300,#301);
#303=PLANE('',#302);
#304=CARTESIAN_POINT('',(1.416992125984252,0.437500000000000,0.0));
#305=VERTEX_POINT('',#304);
#306=CARTESIAN_POINT('',(1.416992125984252,0.0,0.0));
#307=DIRECTION('',(-1.0,0.0,0.0));
#308=DIRECTION('',(0.0,1.0,0.0));
#309=AXIS2_PLACEMENT_3D('',#306,#307,#308);
#310=CIRCLE('',#309,0.437500000000000);
#311=EDGE_CURVE('',#305,#305,#310,.T.);
#312=ORIENTED_EDGE('',*,*,#311,.F.);
#313=EDGE_LOOP('',(#312));
#314=FACE_OUTER_BOUND('',#313,.T.);
#315=ORIENTED_EDGE('',*,*,#291,.T.);
#316=EDGE_LOOP('',(#315));
#317=FACE_BOUND('',#316,.T.);
#318=ADVANCED_FACE('',(#314,#317),#303,.T.);
#319=CARTESIAN_POINT('',(1.309492125984252,0.0,0.0));
#320=DIRECTION('',(-1.0,0.0,0.0));
#321=DIRECTION('',(0.0,1.0,0.0));
#322=AXIS2_PLACEMENT_3D('',#319,#320,#321);
#323=CYLINDRICAL_SURFACE('',#322,0.437500000000000);
#324=ORIENTED_EDGE('',*,*,#262,.F.);
#325=EDGE_LOOP('',(#324));
#326=FACE_OUTER_BOUND('',#325,.T.);
#327=ORIENTED_EDGE('',*,*,#311,.T.);
#328=EDGE_LOOP('',(#327));
#329=FACE_BOUND('',#328,.T.);
#330=ADVANCED_FACE('',(#326,#329),#323,.T.);
#331=CARTESIAN_POINT('',(0.0,0.562500000000000,0.0));
#332=DIRECTION('',(-1.0,0.0,0.0));
#333=DIRECTION('',(0.0,0.0,1.0));
#334=AXIS2_PLACEMENT_3D('',#331,#332,#333);
#335=PLANE('',#334);
#336=CARTESIAN_POINT('',(0.0,0.625000000000000,0.0));
#337=VERTEX_POINT('',#336);
#338=CARTESIAN_POINT('',(0.0,0.0,0.0));
#339=DIRECTION('',(1.0,0.0,0.0));
#340=DIRECTION('',(0.0,1.0,0.0));
#341=AXIS2_PLACEMENT_3D('',#338,#339,#340);
#342=CIRCLE('',#341,0.625000000000000);
#343=EDGE_CURVE('',#337,#337,#342,.T.);
#344=ORIENTED_EDGE('',*,*,#343,.F.);
#345=EDGE_LOOP('',(#344));
#346=FACE_OUTER_BOUND('',#345,.T.);
#347=ADVANCED_FACE('',(#346),#335,.T.);
#348=CARTESIAN_POINT('',(0.156500000000000,0.0,0.0));
#349=DIRECTION('',(1.0,0.0,0.0));
#350=DIRECTION('',(0.0,1.0,0.0));
#351=AXIS2_PLACEMENT_3D('',#348,#349,#350);
#352=CYLINDRICAL_SURFACE('',#351,0.625000000000000);
#353=CARTESIAN_POINT('',(0.313000000000000,0.625000000000000,0.0));
#354=VERTEX_POINT('',#353);
#355=CARTESIAN_POINT('',(0.313000000000000,0.0,0.0));
#356=DIRECTION('',(1.0,0.0,0.0));
#357=DIRECTION('',(0.0,1.0,0.0));
#358=AXIS2_PLACEMENT_3D('',#355,#356,#357);
#359=CIRCLE('',#358,0.625000000000000);
#360=EDGE_CURVE('',#354,#354,#359,.T.);
#361=ORIENTED_EDGE('',*,*,#360,.F.);
#362=EDGE_LOOP('',(#361));
#363=FACE_OUTER_BOUND('',#362,.T.);
#364=ORIENTED_EDGE('',*,*,#343,.T.);
#365=EDGE_LOOP('',(#364));
#366=FACE_BOUND('',#365,.T.);
#367=ADVANCED_FACE('',(#363,#366),#352,.T.);
#368=CARTESIAN_POINT('',(0.441400000000000,0.0,0.0));
#369=DIRECTION('',(-1.0,0.0,0.0));
#370=DIRECTION('',(0.0,1.0,0.0));
#371=AXIS2_PLACEMENT_3D('',#368,#369,#370);
#372=CONICAL_SURFACE('',#371,0.590595323691844,15.000000000000018);
#373=CARTESIAN_POINT('',(0.569800000000000,0.556190647383688,0.0));
#374=VERTEX_POINT('',#373);
#375=CARTESIAN_POINT('',(0.569800000000000,0.0,0.0));
#376=DIRECTION('',(1.0,0.0,0.0));
#377=DIRECTION('',(0.0,1.0,0.0));
#378=AXIS2_PLACEMENT_3D('',#375,#376,#377);
#379=CIRCLE('',#378,0.556190647383688);
#380=EDGE_CURVE('',#374,#374,#379,.T.);
#381=ORIENTED_EDGE('',*,*,#380,.F.);
#382=EDGE_LOOP('',(#381));
#383=FACE_OUTER_BOUND('',#382,.T.);
#384=ORIENTED_EDGE('',*,*,#360,.T.);
#385=EDGE_LOOP('',(#384));
#386=FACE_BOUND('',#385,.T.);
#387=ADVANCED_FACE('',(#383,#386),#372,.T.);
#388=CARTESIAN_POINT('',(0.569800000000000,0.590595323691844,0.0));
#389=DIRECTION('',(-1.0,0.0,0.0));
#390=DIRECTION('',(0.0,0.0,1.0));
#391=AXIS2_PLACEMENT_3D('',#388,#389,#390);
#392=PLANE('',#391);
#393=CARTESIAN_POINT('',(0.569800000000000,0.625000000000000,0.0));
#394=VERTEX_POINT('',#393);
#395=CARTESIAN_POINT('',(0.569800000000000,0.0,0.0));
#396=DIRECTION('',(1.0,0.0,0.0));
#397=DIRECTION('',(0.0,1.0,0.0));
#398=AXIS2_PLACEMENT_3D('',#395,#396,#397);
#399=CIRCLE('',#398,0.625000000000000);
#400=EDGE_CURVE('',#394,#394,#399,.T.);
#401=ORIENTED_EDGE('',*,*,#400,.F.);
#402=EDGE_LOOP('',(#401));
#403=FACE_OUTER_BOUND('',#402,.T.);
#404=ORIENTED_EDGE('',*,*,#380,.T.);
#405=EDGE_LOOP('',(#404));
#406=FACE_BOUND('',#405,.T.);
#407=ADVANCED_FACE('',(#403,#406),#392,.T.);
#408=CARTESIAN_POINT('',(0.628900000000000,0.0,0.0));
#409=DIRECTION('',(1.0,0.0,0.0));
#410=DIRECTION('',(0.0,1.0,0.0));
#411=AXIS2_PLACEMENT_3D('',#408,#409,#410);
#412=CYLINDRICAL_SURFACE('',#411,0.625000000000000);
#413=CARTESIAN_POINT('',(0.688000000000000,0.625000000000000,0.0));
#414=VERTEX_POINT('',#413);
#415=CARTESIAN_POINT('',(0.688000000000000,0.0,0.0));
#416=DIRECTION('',(1.0,0.0,0.0));
#417=DIRECTION('',(0.0,1.0,0.0));
#418=AXIS2_PLACEMENT_3D('',#415,#416,#417);
#419=CIRCLE('',#418,0.625000000000000);
#420=EDGE_CURVE('',#414,#414,#419,.T.);
#421=ORIENTED_EDGE('',*,*,#420,.F.);
#422=EDGE_LOOP('',(#421));
#423=FACE_OUTER_BOUND('',#422,.T.);
#424=ORIENTED_EDGE('',*,*,#400,.T.);
#425=EDGE_LOOP('',(#424));
#426=FACE_BOUND('',#425,.T.);
#427=ADVANCED_FACE('',(#423,#426),#412,.T.);
#428=CARTESIAN_POINT('',(0.688000000000000,0.656000000000000,0.0));
#429=DIRECTION('',(-1.0,0.0,0.0));
#430=DIRECTION('',(0.0,0.0,1.0));
#431=AXIS2_PLACEMENT_3D('',#428,#429,#430);
#432=PLANE('',#431);
#433=CARTESIAN_POINT('',(0.688000000000000,0.687000000000000,0.0));
#434=VERTEX_POINT('',#433);
#435=CARTESIAN_POINT('',(0.688000000000000,0.0,0.0));
#436=DIRECTION('',(1.0,0.0,0.0));
#437=DIRECTION('',(0.0,1.0,0.0));
#438=AXIS2_PLACEMENT_3D('',#435,#436,#437);
#439=CIRCLE('',#438,0.687000000000000);
#440=EDGE_CURVE('',#434,#434,#439,.T.);
#441=ORIENTED_EDGE('',*,*,#440,.F.);
#442=EDGE_LOOP('',(#441));
#443=FACE_OUTER_BOUND('',#442,.T.);
#444=ORIENTED_EDGE('',*,*,#420,.T.);
#445=EDGE_LOOP('',(#444));
#446=FACE_BOUND('',#445,.T.);
#447=ADVANCED_FACE('',(#443,#446),#432,.T.);
#448=CARTESIAN_POINT('',(0.769400000000000,0.0,0.0));
#449=DIRECTION('',(1.0,0.0,0.0));
#450=DIRECTION('',(0.0,1.0,0.0));
#451=AXIS2_PLACEMENT_3D('',#448,#449,#450);
#452=CYLINDRICAL_SURFACE('',#451,0.687000000000000);
#453=CARTESIAN_POINT('',(0.850800000000000,0.687000000000000,0.0));
#454=VERTEX_POINT('',#453);
#455=CARTESIAN_POINT('',(0.850800000000000,0.0,0.0));
#456=DIRECTION('',(1.0,0.0,0.0));
#457=DIRECTION('',(0.0,1.0,0.0));
#458=AXIS2_PLACEMENT_3D('',#455,#456,#457);
#459=CIRCLE('',#458,0.687000000000000);
#460=EDGE_CURVE('',#454,#454,#459,.T.);
#461=ORIENTED_EDGE('',*,*,#460,.F.);
#462=EDGE_LOOP('',(#461));
#463=FACE_OUTER_BOUND('',#462,.T.);
#464=ORIENTED_EDGE('',*,*,#440,.T.);
#465=EDGE_LOOP('',(#464));
#466=FACE_BOUND('',#465,.T.);
#467=ADVANCED_FACE('',(#463,#466),#452,.T.);
#468=CARTESIAN_POINT('',(0.850800000000000,0.562250000000000,0.0));
#469=DIRECTION('',(1.0,0.0,0.0));
#470=DIRECTION('',(0.0,0.0,-1.0));
#471=AXIS2_PLACEMENT_3D('',#468,#469,#470);
#472=PLANE('',#471);
#473=ORIENTED_EDGE('',*,*,#460,.T.);
#474=EDGE_LOOP('',(#473));
#475=FACE_OUTER_BOUND('',#474,.T.);
#476=CARTESIAN_POINT('',(0.850800000000000,0.437500000000000,0.0));
#477=VERTEX_POINT('',#476);
#478=CARTESIAN_POINT('',(0.850800000000000,0.0,0.0));
#479=DIRECTION('',(1.0,0.0,0.0));
#480=DIRECTION('',(0.0,1.0,0.0));
#481=AXIS2_PLACEMENT_3D('',#478,#479,#480);
#482=CIRCLE('',#481,0.437500000000000);
#483=EDGE_CURVE('',#477,#477,#482,.T.);
#484=ORIENTED_EDGE('',*,*,#483,.F.);
#485=EDGE_LOOP('',(#484));
#486=FACE_BOUND('',#485,.T.);
#487=ADVANCED_FACE('',(#475,#486),#472,.T.);
#488=CARTESIAN_POINT('',(0.965400000000000,0.0,0.0));
#489=DIRECTION('',(1.0,0.0,0.0));
#490=DIRECTION('',(0.0,1.0,0.0));
#491=AXIS2_PLACEMENT_3D('',#488,#489,#490);
#492=CYLINDRICAL_SURFACE('',#491,0.437500000000000);
#493=ORIENTED_EDGE('',*,*,#97,.T.);
#494=EDGE_LOOP('',(#493));
#495=FACE_OUTER_BOUND('',#494,.T.);
#496=ORIENTED_EDGE('',*,*,#483,.T.);
#497=EDGE_LOOP('',(#496));
#498=FACE_BOUND('',#497,.T.);
#499=ADVANCED_FACE('',(#495,#498),#492,.T.);
#500=CLOSED_SHELL('',(#101,#118,#146,#166,#186,#198,#226,#246,#266,#278,#298,#318,#330,#347,#367,#387,#407,#427,#447,#467,#487,#499));
#501=MANIFOLD_SOLID_BREP('Solid1',#500);
#502=COLOUR_RGB('',0.105882354080677,0.105882354080677,0.105882354080677);
#503=FILL_AREA_STYLE_COLOUR('',#502);
#504=FILL_AREA_STYLE('',(#503));
#505=SURFACE_STYLE_FILL_AREA(#504);
#506=SURFACE_SIDE_STYLE('',(#505));
#507=SURFACE_STYLE_USAGE(.BOTH.,#506);
#508=PRESENTATION_STYLE_ASSIGNMENT((#507));
#509=STYLED_ITEM('',(#508),#101);
#510=STYLED_ITEM('',(#508),#118);
#511=STYLED_ITEM('',(#508),#146);
#512=STYLED_ITEM('',(#508),#166);
#513=STYLED_ITEM('',(#508),#186);
#514=STYLED_ITEM('',(#508),#198);
#515=STYLED_ITEM('',(#508),#226);
#516=STYLED_ITEM('',(#508),#246);
#517=STYLED_ITEM('',(#508),#266);
#518=STYLED_ITEM('',(#508),#278);
#519=STYLED_ITEM('',(#508),#298);
#520=STYLED_ITEM('',(#508),#318);
#521=STYLED_ITEM('',(#508),#330);
#522=COLOUR_RGB('',0.105881996452808,0.105881996452808,0.105881996452808);
#523=FILL_AREA_STYLE_COLOUR('',#522);
#524=FILL_AREA_STYLE('',(#523));
#525=SURFACE_STYLE_FILL_AREA(#524);
#526=SURFACE_SIDE_STYLE('',(#525));
#527=SURFACE_STYLE_USAGE(.BOTH.,#526);
#528=PRESENTATION_STYLE_ASSIGNMENT((#527));
#529=STYLED_ITEM('',(#528),#347);
#530=STYLED_ITEM('',(#528),#367);
#531=STYLED_ITEM('',(#528),#387);
#532=STYLED_ITEM('',(#528),#407);
#533=STYLED_ITEM('',(#528),#427);
#534=STYLED_ITEM('',(#528),#447);
#535=STYLED_ITEM('',(#528),#467);
#536=STYLED_ITEM('',(#528),#487);
#537=STYLED_ITEM('',(#528),#499);
#538=MECHANICAL_DESIGN_GEOMETRIC_PRESENTATION_REPRESENTATION('',(#509,#510,#511,#512,#513,#514,#515,#516,#517,#518,#519,#520,#521,#529,#530,#531,#532,#533,#534,#535,#536,#537,#546),#73);
#539=COLOUR_RGB('Metal-AL-6061 (AHC)',0.105881996452808,0.105881996452808,0.105881996452808);
#540=FILL_AREA_STYLE_COLOUR('Metal-AL-6061 (AHC)',#539);
#541=FILL_AREA_STYLE('Metal-AL-6061 (AHC)',(#540));
#542=SURFACE_STYLE_FILL_AREA(#541);
#543=SURFACE_SIDE_STYLE('Metal-AL-6061 (AHC)',(#542));
#544=SURFACE_STYLE_USAGE(.BOTH.,#543);
#545=PRESENTATION_STYLE_ASSIGNMENT((#544));
#546=STYLED_ITEM('',(#545),#501);
#547=ADVANCED_BREP_SHAPE_REPRESENTATION('ABSR',(#501),#42);
#548=SHAPE_REPRESENTATION_RELATIONSHIP('SRR','None',#547,#47);
ENDSEC;
END-ISO-10303-21;
