ISO-10303-21;
HEADER;
/****************************************************************
 * Generated by software with PDE/Lib inside                    *
 * PDElib Version 4.0, created Wed Jun 15 17:58:53 EDT 2005     *
 * International Technegroup Inc. (www.iti-oh.com)              *
 ****************************************************************/
FILE_DESCRIPTION((''),'2;1');
FILE_NAME('\\\\Zion\\public\\_50k\\50014_0.stp','2006-07-17T10:03:36',('PODLENA'),(''),'Autodesk Inventor 10','Autodesk Inventor 10','');
FILE_SCHEMA(('AUTOMOTIVE_DESIGN { 1 0 10303 214 1 1 1 1 }'));
ENDSEC;
DATA;
#5=APPLICATION_CONTEXT('automotive design');
#6=APPLICATION_PROTOCOL_DEFINITION('Draft International Standard','automotive_design',1998,#5);
#7=PRODUCT_CONTEXT('None',#5,'mechanical');
#8=PRODUCT('50014_0','50014_0','None',(#7));
#9=PRODUCT_RELATED_PRODUCT_CATEGORY('part','description',(#8));
#10=PRODUCT_DEFINITION_FORMATION('None','None',#8);
#11=PRODUCT_DEFINITION_CONTEXT('part definition',#5,'design');
#12=PRODUCT_DEFINITION('None','None',#10,#11);
#18=(NAMED_UNIT(*)PLANE_ANGLE_UNIT()SI_UNIT($,.RADIAN.));
#19=DIMENSIONAL_EXPONENTS(0.0,0.0,0.0,0.0,0.0,0.0,0.0);
#20=PLANE_ANGLE_MEASURE_WITH_UNIT(PLANE_ANGLE_MEASURE(0.017453292500000),#18);
#24=(CONVERSION_BASED_UNIT('DEGREE',#20)NAMED_UNIT(#19)PLANE_ANGLE_UNIT());
#28=(NAMED_UNIT(*)SI_UNIT($,.STERADIAN.)SOLID_ANGLE_UNIT());
#32=(LENGTH_UNIT()NAMED_UNIT(*)SI_UNIT(.CENTI.,.METRE.));
#33=DIMENSIONAL_EXPONENTS(1.0,0.0,0.0,0.0,0.0,0.0,0.0);
#34=LENGTH_MEASURE_WITH_UNIT(LENGTH_MEASURE(2.540000000000000),#32);
#38=(CONVERSION_BASED_UNIT('INCH',#34)LENGTH_UNIT()NAMED_UNIT(#33));
#40=UNCERTAINTY_MEASURE_WITH_UNIT(LENGTH_MEASURE(0.000393700787402),#38,'DISTANCE_ACCURACY_VALUE','');
#42=(GEOMETRIC_REPRESENTATION_CONTEXT(3)GLOBAL_UNCERTAINTY_ASSIGNED_CONTEXT((#40))GLOBAL_UNIT_ASSIGNED_CONTEXT((#24,#28,#38))REPRESENTATION_CONTEXT('None','None'));
#43=AXIS2_PLACEMENT_3D('',#44,#45,#46);
#44=CARTESIAN_POINT('',(0.0,0.0,0.0));
#45=DIRECTION('',(0.0,0.0,1.0));
#46=DIRECTION('',(1.0,0.0,0.0));
#47=SHAPE_REPRESENTATION('',(#43,#348,#570),#42);
#48=PRODUCT_DEFINITION_SHAPE('','',#12);
#49=SHAPE_DEFINITION_REPRESENTATION(#48,#47);
#50=APPLICATION_CONTEXT('automotive design');
#51=APPLICATION_PROTOCOL_DEFINITION('Draft International Standard','automotive_design',1998,#50);
#52=PRODUCT_CONTEXT('None',#50,'mechanical');
#53=PRODUCT('50098','50098','None',(#52));
#54=PRODUCT_RELATED_PRODUCT_CATEGORY('part','description',(#53));
#55=PRODUCT_DEFINITION_FORMATION('None','None',#53);
#56=PRODUCT_DEFINITION_CONTEXT('part definition',#50,'design');
#57=PRODUCT_DEFINITION('None','None',#55,#56);
#63=(NAMED_UNIT(*)PLANE_ANGLE_UNIT()SI_UNIT($,.RADIAN.));
#64=DIMENSIONAL_EXPONENTS(0.0,0.0,0.0,0.0,0.0,0.0,0.0);
#65=PLANE_ANGLE_MEASURE_WITH_UNIT(PLANE_ANGLE_MEASURE(0.017453292500000),#63);
#69=(CONVERSION_BASED_UNIT('DEGREE',#65)NAMED_UNIT(#64)PLANE_ANGLE_UNIT());
#73=(NAMED_UNIT(*)SI_UNIT($,.STERADIAN.)SOLID_ANGLE_UNIT());
#77=(LENGTH_UNIT()NAMED_UNIT(*)SI_UNIT(.CENTI.,.METRE.));
#78=DIMENSIONAL_EXPONENTS(1.0,0.0,0.0,0.0,0.0,0.0,0.0);
#79=LENGTH_MEASURE_WITH_UNIT(LENGTH_MEASURE(2.540000000000000),#77);
#83=(CONVERSION_BASED_UNIT('INCH',#79)LENGTH_UNIT()NAMED_UNIT(#78));
#85=UNCERTAINTY_MEASURE_WITH_UNIT(LENGTH_MEASURE(0.000393700787402),#83,'DISTANCE_ACCURACY_VALUE','');
#87=(GEOMETRIC_REPRESENTATION_CONTEXT(3)GLOBAL_UNCERTAINTY_ASSIGNED_CONTEXT((#85))GLOBAL_UNIT_ASSIGNED_CONTEXT((#69,#73,#83))REPRESENTATION_CONTEXT('None','None'));
#88=AXIS2_PLACEMENT_3D('',#89,#90,#91);
#89=CARTESIAN_POINT('',(0.0,0.0,0.0));
#90=DIRECTION('',(0.0,0.0,1.0));
#91=DIRECTION('',(1.0,0.0,0.0));
#92=SHAPE_REPRESENTATION('',(#88),#87);
#93=PRODUCT_DEFINITION_SHAPE('','',#57);
#94=SHAPE_DEFINITION_REPRESENTATION(#93,#92);
#95=CARTESIAN_POINT('',(0.0,0.010000000000000,0.0));
#96=DIRECTION('',(0.0,1.0,0.0));
#97=DIRECTION('',(1.0,0.0,0.0));
#98=AXIS2_PLACEMENT_3D('',#95,#96,#97);
#99=CONICAL_SURFACE('',#98,0.615000000000000,44.999999999999964);
#100=CARTESIAN_POINT('',(-0.605000000000000,0.0,7.408868E-017));
#101=VERTEX_POINT('',#100);
#102=CARTESIAN_POINT('',(0.0,0.0,0.0));
#103=DIRECTION('',(0.0,1.0,0.0));
#104=DIRECTION('',(1.0,0.0,0.0));
#105=AXIS2_PLACEMENT_3D('',#102,#103,#104);
#106=CIRCLE('',#105,0.605000000000000);
#107=EDGE_CURVE('',#101,#101,#106,.T.);
#108=ORIENTED_EDGE('',*,*,#107,.T.);
#109=EDGE_LOOP('',(#108));
#110=FACE_OUTER_BOUND('',#109,.T.);
#111=CARTESIAN_POINT('',(-0.625000000000000,0.020000000000000,-7.653790E-017));
#112=VERTEX_POINT('',#111);
#113=CARTESIAN_POINT('',(0.0,0.020000000000000,0.0));
#114=DIRECTION('',(0.0,-1.0,0.0));
#115=DIRECTION('',(1.0,0.0,0.0));
#116=AXIS2_PLACEMENT_3D('',#113,#114,#115);
#117=CIRCLE('',#116,0.625000000000000);
#118=EDGE_CURVE('',#112,#112,#117,.T.);
#119=ORIENTED_EDGE('',*,*,#118,.T.);
#120=EDGE_LOOP('',(#119));
#121=FACE_BOUND('',#120,.T.);
#122=ADVANCED_FACE('',(#110,#121),#99,.T.);
#123=CARTESIAN_POINT('',(-0.533000000000000,0.0,0.0));
#124=DIRECTION('',(0.0,-1.0,0.0));
#125=DIRECTION('',(0.0,0.0,-1.0));
#126=AXIS2_PLACEMENT_3D('',#123,#124,#125);
#127=PLANE('',#126);
#128=ORIENTED_EDGE('',*,*,#107,.F.);
#129=EDGE_LOOP('',(#128));
#130=FACE_OUTER_BOUND('',#129,.T.);
#131=CARTESIAN_POINT('',(-0.441000000000000,0.0,0.0));
#132=VERTEX_POINT('',#131);
#133=CARTESIAN_POINT('',(0.0,0.0,0.0));
#134=DIRECTION('',(0.0,1.0,0.0));
#135=DIRECTION('',(-1.0,0.0,0.0));
#136=AXIS2_PLACEMENT_3D('',#133,#134,#135);
#137=CIRCLE('',#136,0.441000000000000);
#138=EDGE_CURVE('',#132,#132,#137,.T.);
#139=ORIENTED_EDGE('',*,*,#138,.T.);
#140=EDGE_LOOP('',(#139));
#141=FACE_BOUND('',#140,.T.);
#142=ADVANCED_FACE('',(#130,#141),#127,.T.);
#143=CARTESIAN_POINT('',(0.0,0.025000000000000,0.0));
#144=DIRECTION('',(0.0,1.0,0.0));
#145=DIRECTION('',(-1.0,0.0,0.0));
#146=AXIS2_PLACEMENT_3D('',#143,#144,#145);
#147=CYLINDRICAL_SURFACE('',#146,0.625000000000000);
#148=CARTESIAN_POINT('',(-0.625000000000000,0.050000000000000,0.0));
#149=VERTEX_POINT('',#148);
#150=CARTESIAN_POINT('',(0.0,0.050000000000000,0.0));
#151=DIRECTION('',(0.0,1.0,0.0));
#152=DIRECTION('',(-1.0,0.0,0.0));
#153=AXIS2_PLACEMENT_3D('',#150,#151,#152);
#154=CIRCLE('',#153,0.625000000000000);
#155=EDGE_CURVE('',#149,#149,#154,.T.);
#156=ORIENTED_EDGE('',*,*,#155,.F.);
#157=EDGE_LOOP('',(#156));
#158=FACE_OUTER_BOUND('',#157,.T.);
#159=ORIENTED_EDGE('',*,*,#118,.F.);
#160=EDGE_LOOP('',(#159));
#161=FACE_BOUND('',#160,.T.);
#162=ADVANCED_FACE('',(#158,#161),#147,.T.);
#163=CARTESIAN_POINT('',(0.0,0.353000000000000,0.0));
#164=DIRECTION('',(0.0,-1.0,0.0));
#165=DIRECTION('',(1.0,0.0,0.0));
#166=AXIS2_PLACEMENT_3D('',#163,#164,#165);
#167=CONICAL_SURFACE('',#166,0.615000000000000,44.999999999999943);
#168=CARTESIAN_POINT('',(-0.625000000000000,0.343000000000000,7.653790E-017));
#169=VERTEX_POINT('',#168);
#170=CARTESIAN_POINT('',(0.0,0.343000000000000,0.0));
#171=DIRECTION('',(0.0,1.0,0.0));
#172=DIRECTION('',(1.0,0.0,0.0));
#173=AXIS2_PLACEMENT_3D('',#170,#171,#172);
#174=CIRCLE('',#173,0.625000000000000);
#175=EDGE_CURVE('',#169,#169,#174,.T.);
#176=ORIENTED_EDGE('',*,*,#175,.T.);
#177=EDGE_LOOP('',(#176));
#178=FACE_OUTER_BOUND('',#177,.T.);
#179=CARTESIAN_POINT('',(-0.605000000000000,0.363000000000000,-7.408868E-017));
#180=VERTEX_POINT('',#179);
#181=CARTESIAN_POINT('',(0.0,0.363000000000000,0.0));
#182=DIRECTION('',(0.0,-1.0,0.0));
#183=DIRECTION('',(1.0,0.0,0.0));
#184=AXIS2_PLACEMENT_3D('',#181,#182,#183);
#185=CIRCLE('',#184,0.605000000000000);
#186=EDGE_CURVE('',#180,#180,#185,.T.);
#187=ORIENTED_EDGE('',*,*,#186,.T.);
#188=EDGE_LOOP('',(#187));
#189=FACE_BOUND('',#188,.T.);
#190=ADVANCED_FACE('',(#178,#189),#167,.T.);
#191=CARTESIAN_POINT('',(0.0,0.281500000000000,0.0));
#192=DIRECTION('',(0.0,1.0,0.0));
#193=DIRECTION('',(-1.0,0.0,0.0));
#194=AXIS2_PLACEMENT_3D('',#191,#192,#193);
#195=CYLINDRICAL_SURFACE('',#194,0.625000000000000);
#196=CARTESIAN_POINT('',(-0.625000000000000,0.200000000000000,0.0));
#197=VERTEX_POINT('',#196);
#198=CARTESIAN_POINT('',(0.0,0.200000000000000,0.0));
#199=DIRECTION('',(0.0,1.0,0.0));
#200=DIRECTION('',(-1.0,0.0,0.0));
#201=AXIS2_PLACEMENT_3D('',#198,#199,#200);
#202=CIRCLE('',#201,0.625000000000000);
#203=EDGE_CURVE('',#197,#197,#202,.T.);
#204=ORIENTED_EDGE('',*,*,#203,.T.);
#205=EDGE_LOOP('',(#204));
#206=FACE_OUTER_BOUND('',#205,.T.);
#207=ORIENTED_EDGE('',*,*,#175,.F.);
#208=EDGE_LOOP('',(#207));
#209=FACE_BOUND('',#208,.T.);
#210=ADVANCED_FACE('',(#206,#209),#195,.T.);
#211=CARTESIAN_POINT('',(-0.585750000000000,0.363000000000000,0.0));
#212=DIRECTION('',(0.0,1.0,0.0));
#213=DIRECTION('',(0.0,0.0,1.0));
#214=AXIS2_PLACEMENT_3D('',#211,#212,#213);
#215=PLANE('',#214);
#216=ORIENTED_EDGE('',*,*,#186,.F.);
#217=EDGE_LOOP('',(#216));
#218=FACE_OUTER_BOUND('',#217,.T.);
#219=CARTESIAN_POINT('',(-0.546500000000000,0.363000000000000,0.0));
#220=VERTEX_POINT('',#219);
#221=CARTESIAN_POINT('',(0.0,0.363000000000000,0.0));
#222=DIRECTION('',(0.0,1.0,0.0));
#223=DIRECTION('',(-1.0,0.0,0.0));
#224=AXIS2_PLACEMENT_3D('',#221,#222,#223);
#225=CIRCLE('',#224,0.546500000000000);
#226=EDGE_CURVE('',#220,#220,#225,.T.);
#227=ORIENTED_EDGE('',*,*,#226,.F.);
#228=EDGE_LOOP('',(#227));
#229=FACE_BOUND('',#228,.T.);
#230=ADVANCED_FACE('',(#218,#229),#215,.T.);
#231=CARTESIAN_POINT('',(-0.617500000000000,0.050000000000000,0.0));
#232=DIRECTION('',(0.0,1.0,0.0));
#233=DIRECTION('',(0.0,0.0,1.0));
#234=AXIS2_PLACEMENT_3D('',#231,#232,#233);
#235=PLANE('',#234);
#236=ORIENTED_EDGE('',*,*,#155,.T.);
#237=EDGE_LOOP('',(#236));
#238=FACE_OUTER_BOUND('',#237,.T.);
#239=CARTESIAN_POINT('',(-0.610000000000000,0.050000000000000,0.0));
#240=VERTEX_POINT('',#239);
#241=CARTESIAN_POINT('',(0.0,0.050000000000000,0.0));
#242=DIRECTION('',(0.0,1.0,0.0));
#243=DIRECTION('',(-1.0,0.0,0.0));
#244=AXIS2_PLACEMENT_3D('',#241,#242,#243);
#245=CIRCLE('',#244,0.610000000000000);
#246=EDGE_CURVE('',#240,#240,#245,.T.);
#247=ORIENTED_EDGE('',*,*,#246,.F.);
#248=EDGE_LOOP('',(#247));
#249=FACE_BOUND('',#248,.T.);
#250=ADVANCED_FACE('',(#238,#249),#235,.T.);
#251=CARTESIAN_POINT('',(0.0,0.125000000000000,0.0));
#252=DIRECTION('',(0.0,1.0,0.0));
#253=DIRECTION('',(-1.0,0.0,0.0));
#254=AXIS2_PLACEMENT_3D('',#251,#252,#253);
#255=CYLINDRICAL_SURFACE('',#254,0.610000000000000);
#256=CARTESIAN_POINT('',(-0.610000000000000,0.200000000000000,0.0));
#257=VERTEX_POINT('',#256);
#258=CARTESIAN_POINT('',(0.0,0.200000000000000,0.0));
#259=DIRECTION('',(0.0,1.0,0.0));
#260=DIRECTION('',(-1.0,0.0,0.0));
#261=AXIS2_PLACEMENT_3D('',#258,#259,#260);
#262=CIRCLE('',#261,0.610000000000000);
#263=EDGE_CURVE('',#257,#257,#262,.T.);
#264=ORIENTED_EDGE('',*,*,#263,.F.);
#265=EDGE_LOOP('',(#264));
#266=FACE_OUTER_BOUND('',#265,.T.);
#267=ORIENTED_EDGE('',*,*,#246,.T.);
#268=EDGE_LOOP('',(#267));
#269=FACE_BOUND('',#268,.T.);
#270=ADVANCED_FACE('',(#266,#269),#255,.T.);
#271=CARTESIAN_POINT('',(-0.617500000000000,0.200000000000000,0.0));
#272=DIRECTION('',(0.0,-1.0,0.0));
#273=DIRECTION('',(0.0,0.0,-1.0));
#274=AXIS2_PLACEMENT_3D('',#271,#272,#273);
#275=PLANE('',#274);
#276=ORIENTED_EDGE('',*,*,#203,.F.);
#277=EDGE_LOOP('',(#276));
#278=FACE_OUTER_BOUND('',#277,.T.);
#279=ORIENTED_EDGE('',*,*,#263,.T.);
#280=EDGE_LOOP('',(#279));
#281=FACE_BOUND('',#280,.T.);
#282=ADVANCED_FACE('',(#278,#281),#275,.T.);
#283=CARTESIAN_POINT('',(0.0,0.201000000000000,0.0));
#284=DIRECTION('',(0.0,1.0,0.0));
#285=DIRECTION('',(-1.0,0.0,0.0));
#286=AXIS2_PLACEMENT_3D('',#283,#284,#285);
#287=CYLINDRICAL_SURFACE('',#286,0.546500000000000);
#288=CARTESIAN_POINT('',(-0.546500000000000,0.039000000000000,0.0));
#289=VERTEX_POINT('',#288);
#290=CARTESIAN_POINT('',(0.0,0.039000000000000,0.0));
#291=DIRECTION('',(0.0,1.0,0.0));
#292=DIRECTION('',(-1.0,0.0,0.0));
#293=AXIS2_PLACEMENT_3D('',#290,#291,#292);
#294=CIRCLE('',#293,0.546500000000000);
#295=EDGE_CURVE('',#289,#289,#294,.T.);
#296=ORIENTED_EDGE('',*,*,#295,.F.);
#297=EDGE_LOOP('',(#296));
#298=FACE_OUTER_BOUND('',#297,.T.);
#299=ORIENTED_EDGE('',*,*,#226,.T.);
#300=EDGE_LOOP('',(#299));
#301=FACE_BOUND('',#300,.T.);
#302=ADVANCED_FACE('',(#298,#301),#287,.F.);
#303=CARTESIAN_POINT('',(-0.493750000000000,0.039000000000000,0.0));
#304=DIRECTION('',(0.0,1.0,0.0));
#305=DIRECTION('',(0.0,0.0,1.0));
#306=AXIS2_PLACEMENT_3D('',#303,#304,#305);
#307=PLANE('',#306);
#308=ORIENTED_EDGE('',*,*,#295,.T.);
#309=EDGE_LOOP('',(#308));
#310=FACE_OUTER_BOUND('',#309,.T.);
#311=CARTESIAN_POINT('',(-0.441000000000000,0.039000000000000,0.0));
#312=VERTEX_POINT('',#311);
#313=CARTESIAN_POINT('',(0.0,0.039000000000000,0.0));
#314=DIRECTION('',(0.0,1.0,0.0));
#315=DIRECTION('',(-1.0,0.0,0.0));
#316=AXIS2_PLACEMENT_3D('',#313,#314,#315);
#317=CIRCLE('',#316,0.441000000000000);
#318=EDGE_CURVE('',#312,#312,#317,.T.);
#319=ORIENTED_EDGE('',*,*,#318,.F.);
#320=EDGE_LOOP('',(#319));
#321=FACE_BOUND('',#320,.T.);
#322=ADVANCED_FACE('',(#310,#321),#307,.T.);
#323=CARTESIAN_POINT('',(0.0,0.019500000000000,0.0));
#324=DIRECTION('',(0.0,1.0,0.0));
#325=DIRECTION('',(-1.0,0.0,0.0));
#326=AXIS2_PLACEMENT_3D('',#323,#324,#325);
#327=CYLINDRICAL_SURFACE('',#326,0.441000000000000);
#328=ORIENTED_EDGE('',*,*,#138,.F.);
#329=EDGE_LOOP('',(#328));
#330=FACE_OUTER_BOUND('',#329,.T.);
#331=ORIENTED_EDGE('',*,*,#318,.T.);
#332=EDGE_LOOP('',(#331));
#333=FACE_BOUND('',#332,.T.);
#334=ADVANCED_FACE('',(#330,#333),#327,.F.);
#335=CLOSED_SHELL('',(#122,#142,#162,#190,#210,#230,#250,#270,#282,#302,#322,#334));
#336=MANIFOLD_SOLID_BREP('',#335);
#337=COLOUR_RGB('Metal-AL-6061 (AHC)',0.105882354080677,0.105882354080677,0.105882354080677);
#338=FILL_AREA_STYLE_COLOUR('Metal-AL-6061 (AHC)',#337);
#339=FILL_AREA_STYLE('Metal-AL-6061 (AHC)',(#338));
#340=SURFACE_STYLE_FILL_AREA(#339);
#341=SURFACE_SIDE_STYLE('Metal-AL-6061 (AHC)',(#340));
#342=SURFACE_STYLE_USAGE(.BOTH.,#341);
#343=PRESENTATION_STYLE_ASSIGNMENT((#342));
#344=STYLED_ITEM('',(#343),#336);
#345=MECHANICAL_DESIGN_GEOMETRIC_PRESENTATION_REPRESENTATION('',(#344,#567),#42);
#346=ADVANCED_BREP_SHAPE_REPRESENTATION('ABSR',(#336),#87);
#347=SHAPE_REPRESENTATION_RELATIONSHIP('SRR','None',#346,#92);
#348=AXIS2_PLACEMENT_3D('',#349,#350,#351);
#349=CARTESIAN_POINT('',(0.0,0.192937007874016,0.0));
#350=DIRECTION('',(0.0,0.0,-1.0));
#351=DIRECTION('',(1.0,0.0,0.0));
#352=NEXT_ASSEMBLY_USAGE_OCCURRENCE('50098:1','50098:1','50098:1',#12,#57,'50098:1');
#353=PRODUCT_DEFINITION_SHAPE('50098:1','50098:1',#352);
#354=ITEM_DEFINED_TRANSFORMATION('50098:1','50098:1',#88,#348);
#358=(REPRESENTATION_RELATIONSHIP('50098:1','50098:1',#92,#47)REPRESENTATION_RELATIONSHIP_WITH_TRANSFORMATION(#354)SHAPE_REPRESENTATION_RELATIONSHIP());
#359=CONTEXT_DEPENDENT_SHAPE_REPRESENTATION(#358,#353);
#360=APPLICATION_CONTEXT('automotive design');
#361=APPLICATION_PROTOCOL_DEFINITION('Draft International Standard','automotive_design',1998,#360);
#362=PRODUCT_CONTEXT('None',#360,'mechanical');
#363=PRODUCT('50097','50097','None',(#362));
#364=PRODUCT_RELATED_PRODUCT_CATEGORY('part','description',(#363));
#365=PRODUCT_DEFINITION_FORMATION('None','None',#363);
#366=PRODUCT_DEFINITION_CONTEXT('part definition',#360,'design');
#367=PRODUCT_DEFINITION('None','None',#365,#366);
#373=(NAMED_UNIT(*)PLANE_ANGLE_UNIT()SI_UNIT($,.RADIAN.));
#374=DIMENSIONAL_EXPONENTS(0.0,0.0,0.0,0.0,0.0,0.0,0.0);
#375=PLANE_ANGLE_MEASURE_WITH_UNIT(PLANE_ANGLE_MEASURE(0.017453292500000),#373);
#379=(CONVERSION_BASED_UNIT('DEGREE',#375)NAMED_UNIT(#374)PLANE_ANGLE_UNIT());
#383=(NAMED_UNIT(*)SI_UNIT($,.STERADIAN.)SOLID_ANGLE_UNIT());
#387=(LENGTH_UNIT()NAMED_UNIT(*)SI_UNIT(.CENTI.,.METRE.));
#388=DIMENSIONAL_EXPONENTS(1.0,0.0,0.0,0.0,0.0,0.0,0.0);
#389=LENGTH_MEASURE_WITH_UNIT(LENGTH_MEASURE(2.540000000000000),#387);
#393=(CONVERSION_BASED_UNIT('INCH',#389)LENGTH_UNIT()NAMED_UNIT(#388));
#395=UNCERTAINTY_MEASURE_WITH_UNIT(LENGTH_MEASURE(0.000393700787402),#393,'DISTANCE_ACCURACY_VALUE','');
#397=(GEOMETRIC_REPRESENTATION_CONTEXT(3)GLOBAL_UNCERTAINTY_ASSIGNED_CONTEXT((#395))GLOBAL_UNIT_ASSIGNED_CONTEXT((#379,#383,#393))REPRESENTATION_CONTEXT('None','None'));
#398=AXIS2_PLACEMENT_3D('',#399,#400,#401);
#399=CARTESIAN_POINT('',(0.0,0.0,0.0));
#400=DIRECTION('',(0.0,0.0,1.0));
#401=DIRECTION('',(1.0,0.0,0.0));
#402=SHAPE_REPRESENTATION('',(#398),#397);
#403=PRODUCT_DEFINITION_SHAPE('','',#367);
#404=SHAPE_DEFINITION_REPRESENTATION(#403,#402);
#405=CARTESIAN_POINT('',(0.190000000000000,0.0,0.0));
#406=DIRECTION('',(1.0,0.0,0.0));
#407=DIRECTION('',(0.0,1.0,0.0));
#408=AXIS2_PLACEMENT_3D('',#405,#406,#407);
#409=CYLINDRICAL_SURFACE('',#408,0.546500000000000);
#410=CARTESIAN_POINT('',(0.368279789535451,0.546500000000000,0.0));
#411=VERTEX_POINT('',#410);
#412=CARTESIAN_POINT('',(0.368279789535451,0.0,0.0));
#413=DIRECTION('',(1.0,0.0,0.0));
#414=DIRECTION('',(0.0,1.0,0.0));
#415=AXIS2_PLACEMENT_3D('',#412,#413,#414);
#416=CIRCLE('',#415,0.546500000000000);
#417=EDGE_CURVE('',#411,#411,#416,.T.);
#418=ORIENTED_EDGE('',*,*,#417,.F.);
#419=EDGE_LOOP('',(#418));
#420=FACE_OUTER_BOUND('',#419,.T.);
#421=CARTESIAN_POINT('',(0.011720210464549,0.546500000000000,0.0));
#422=VERTEX_POINT('',#421);
#423=CARTESIAN_POINT('',(0.011720210464549,0.0,0.0));
#424=DIRECTION('',(1.0,0.0,0.0));
#425=DIRECTION('',(0.0,1.0,0.0));
#426=AXIS2_PLACEMENT_3D('',#423,#424,#425);
#427=CIRCLE('',#426,0.546500000000000);
#428=EDGE_CURVE('',#422,#422,#427,.T.);
#429=ORIENTED_EDGE('',*,*,#428,.T.);
#430=EDGE_LOOP('',(#429));
#431=FACE_BOUND('',#430,.T.);
#432=ADVANCED_FACE('',(#420,#431),#409,.T.);
#433=CARTESIAN_POINT('',(0.374139894767725,0.0,0.0));
#434=DIRECTION('',(-1.0,0.0,0.0));
#435=DIRECTION('',(0.0,1.0,0.0));
#436=AXIS2_PLACEMENT_3D('',#433,#434,#435);
#437=CONICAL_SURFACE('',#436,0.536350000000000,60.000000000000156);
#438=CARTESIAN_POINT('',(0.380000000000000,0.526200000000000,0.0));
#439=VERTEX_POINT('',#438);
#440=CARTESIAN_POINT('',(0.380000000000000,0.0,0.0));
#441=DIRECTION('',(1.0,0.0,0.0));
#442=DIRECTION('',(0.0,1.0,0.0));
#443=AXIS2_PLACEMENT_3D('',#440,#441,#442);
#444=CIRCLE('',#443,0.526200000000000);
#445=EDGE_CURVE('',#439,#439,#444,.T.);
#446=ORIENTED_EDGE('',*,*,#445,.F.);
#447=EDGE_LOOP('',(#446));
#448=FACE_OUTER_BOUND('',#447,.T.);
#449=ORIENTED_EDGE('',*,*,#417,.T.);
#450=EDGE_LOOP('',(#449));
#451=FACE_BOUND('',#450,.T.);
#452=ADVANCED_FACE('',(#448,#451),#437,.T.);
#453=CARTESIAN_POINT('',(0.380000000000000,0.483600000000000,0.0));
#454=DIRECTION('',(1.0,0.0,0.0));
#455=DIRECTION('',(0.0,0.0,-1.0));
#456=AXIS2_PLACEMENT_3D('',#453,#454,#455);
#457=PLANE('',#456);
#458=ORIENTED_EDGE('',*,*,#445,.T.);
#459=EDGE_LOOP('',(#458));
#460=FACE_OUTER_BOUND('',#459,.T.);
#461=CARTESIAN_POINT('',(0.380000000000000,0.441000000000000,0.0));
#462=VERTEX_POINT('',#461);
#463=CARTESIAN_POINT('',(0.380000000000000,0.0,0.0));
#464=DIRECTION('',(1.0,0.0,0.0));
#465=DIRECTION('',(0.0,1.0,0.0));
#466=AXIS2_PLACEMENT_3D('',#463,#464,#465);
#467=CIRCLE('',#466,0.441000000000000);
#468=EDGE_CURVE('',#462,#462,#467,.T.);
#469=ORIENTED_EDGE('',*,*,#468,.F.);
#470=EDGE_LOOP('',(#469));
#471=FACE_BOUND('',#470,.T.);
#472=ADVANCED_FACE('',(#460,#471),#457,.T.);
#473=CARTESIAN_POINT('',(0.274000000000000,0.0,0.0));
#474=DIRECTION('',(1.0,0.0,0.0));
#475=DIRECTION('',(0.0,1.0,0.0));
#476=AXIS2_PLACEMENT_3D('',#473,#474,#475);
#477=CYLINDRICAL_SURFACE('',#476,0.441000000000000);
#478=CARTESIAN_POINT('',(0.168000000000000,0.441000000000000,0.0));
#479=VERTEX_POINT('',#478);
#480=CARTESIAN_POINT('',(0.168000000000000,0.0,0.0));
#481=DIRECTION('',(1.0,0.0,0.0));
#482=DIRECTION('',(0.0,1.0,0.0));
#483=AXIS2_PLACEMENT_3D('',#480,#481,#482);
#484=CIRCLE('',#483,0.441000000000000);
#485=EDGE_CURVE('',#479,#479,#484,.T.);
#486=ORIENTED_EDGE('',*,*,#485,.F.);
#487=EDGE_LOOP('',(#486));
#488=FACE_OUTER_BOUND('',#487,.T.);
#489=ORIENTED_EDGE('',*,*,#468,.T.);
#490=EDGE_LOOP('',(#489));
#491=FACE_BOUND('',#490,.T.);
#492=ADVANCED_FACE('',(#488,#491),#477,.F.);
#493=CARTESIAN_POINT('',(0.168000000000000,0.457000000000000,0.0));
#494=DIRECTION('',(-1.0,0.0,0.0));
#495=DIRECTION('',(0.0,0.0,1.0));
#496=AXIS2_PLACEMENT_3D('',#493,#494,#495);
#497=PLANE('',#496);
#498=CARTESIAN_POINT('',(0.168000000000000,0.473000000000000,0.0));
#499=VERTEX_POINT('',#498);
#500=CARTESIAN_POINT('',(0.168000000000000,0.0,0.0));
#501=DIRECTION('',(1.0,0.0,0.0));
#502=DIRECTION('',(0.0,1.0,0.0));
#503=AXIS2_PLACEMENT_3D('',#500,#501,#502);
#504=CIRCLE('',#503,0.473000000000000);
#505=EDGE_CURVE('',#499,#499,#504,.T.);
#506=ORIENTED_EDGE('',*,*,#505,.F.);
#507=EDGE_LOOP('',(#506));
#508=FACE_OUTER_BOUND('',#507,.T.);
#509=ORIENTED_EDGE('',*,*,#485,.T.);
#510=EDGE_LOOP('',(#509));
#511=FACE_BOUND('',#510,.T.);
#512=ADVANCED_FACE('',(#508,#511),#497,.T.);
#513=CARTESIAN_POINT('',(0.084000000000000,0.0,0.0));
#514=DIRECTION('',(1.0,0.0,0.0));
#515=DIRECTION('',(0.0,1.0,0.0));
#516=AXIS2_PLACEMENT_3D('',#513,#514,#515);
#517=CYLINDRICAL_SURFACE('',#516,0.473000000000000);
#518=CARTESIAN_POINT('',(0.0,0.473000000000000,0.0));
#519=VERTEX_POINT('',#518);
#520=CARTESIAN_POINT('',(0.0,0.0,0.0));
#521=DIRECTION('',(1.0,0.0,0.0));
#522=DIRECTION('',(0.0,1.0,0.0));
#523=AXIS2_PLACEMENT_3D('',#520,#521,#522);
#524=CIRCLE('',#523,0.473000000000000);
#525=EDGE_CURVE('',#519,#519,#524,.T.);
#526=ORIENTED_EDGE('',*,*,#525,.F.);
#527=EDGE_LOOP('',(#526));
#528=FACE_OUTER_BOUND('',#527,.T.);
#529=ORIENTED_EDGE('',*,*,#505,.T.);
#530=EDGE_LOOP('',(#529));
#531=FACE_BOUND('',#530,.T.);
#532=ADVANCED_FACE('',(#528,#531),#517,.F.);
#533=CARTESIAN_POINT('',(0.0,0.499600000000000,0.0));
#534=DIRECTION('',(-1.0,0.0,0.0));
#535=DIRECTION('',(0.0,0.0,1.0));
#536=AXIS2_PLACEMENT_3D('',#533,#534,#535);
#537=PLANE('',#536);
#538=CARTESIAN_POINT('',(0.0,0.526200000000000,0.0));
#539=VERTEX_POINT('',#538);
#540=CARTESIAN_POINT('',(0.0,0.0,0.0));
#541=DIRECTION('',(1.0,0.0,0.0));
#542=DIRECTION('',(0.0,1.0,0.0));
#543=AXIS2_PLACEMENT_3D('',#540,#541,#542);
#544=CIRCLE('',#543,0.526200000000000);
#545=EDGE_CURVE('',#539,#539,#544,.T.);
#546=ORIENTED_EDGE('',*,*,#545,.F.);
#547=EDGE_LOOP('',(#546));
#548=FACE_OUTER_BOUND('',#547,.T.);
#549=ORIENTED_EDGE('',*,*,#525,.T.);
#550=EDGE_LOOP('',(#549));
#551=FACE_BOUND('',#550,.T.);
#552=ADVANCED_FACE('',(#548,#551),#537,.T.);
#553=CARTESIAN_POINT('',(0.005860105232275,0.0,0.0));
#554=DIRECTION('',(1.0,0.0,0.0));
#555=DIRECTION('',(0.0,1.0,0.0));
#556=AXIS2_PLACEMENT_3D('',#553,#554,#555);
#557=CONICAL_SURFACE('',#556,0.536350000000000,60.000000000000263);
#558=ORIENTED_EDGE('',*,*,#428,.F.);
#559=EDGE_LOOP('',(#558));
#560=FACE_OUTER_BOUND('',#559,.T.);
#561=ORIENTED_EDGE('',*,*,#545,.T.);
#562=EDGE_LOOP('',(#561));
#563=FACE_BOUND('',#562,.T.);
#564=ADVANCED_FACE('',(#560,#563),#557,.T.);
#565=CLOSED_SHELL('',(#432,#452,#472,#492,#512,#532,#552,#564));
#566=MANIFOLD_SOLID_BREP('',#565);
#567=STYLED_ITEM('',(#343),#566);
#568=ADVANCED_BREP_SHAPE_REPRESENTATION('ABSR',(#566),#397);
#569=SHAPE_REPRESENTATION_RELATIONSHIP('SRR','None',#568,#402);
#570=AXIS2_PLACEMENT_3D('',#571,#572,#573);
#571=CARTESIAN_POINT('',(-6.747258E-017,-0.329268135578352,-1.264842E-017));
#572=DIRECTION('',(5.625188E-016,3.190086E-032,-1.0));
#573=DIRECTION('',(2.220446E-016,1.000000000000000,3.422612E-017));
#574=NEXT_ASSEMBLY_USAGE_OCCURRENCE('50097:1','50097:1','50097:1',#12,#367,'50097:1');
#575=PRODUCT_DEFINITION_SHAPE('50097:1','50097:1',#574);
#576=ITEM_DEFINED_TRANSFORMATION('50097:1','50097:1',#398,#570);
#580=(REPRESENTATION_RELATIONSHIP('50097:1','50097:1',#402,#47)REPRESENTATION_RELATIONSHIP_WITH_TRANSFORMATION(#576)SHAPE_REPRESENTATION_RELATIONSHIP());
#581=CONTEXT_DEPENDENT_SHAPE_REPRESENTATION(#580,#575);
ENDSEC;
END-ISO-10303-21;
